Song name
# A B C D E F G H I J K L M N O P Q R S T U V W X Y Z

Brian Tyler - Mustang Nismo tab

song is played using standard tuning

pm - palm mute
v  - vibrato
x  - mute


E|----------------------------------------------------------------|
B|----------------------------------------------------------------|
G|------0------------0------------------0------------0------------|
D|------0------------0------------------0------------0------------| 
A|--2-----2------2-----2------------2-----2------2-----2---5-7----|
E|--0-0---0------0-0---0-0-0/3------0-0---0------0-0---0-0-3-5----|
      pm           pm    pm  v        pm           pm    pm

E|----------------------------------------------------------------|
B|----------------------------------------------------------------|
G|------0------------0------------------0------------0------------|
D|------0------------0------------------0------------0-----7------| 
A|--2-----2------2-----2------------2-----2------2-----2---5-7----|
E|--0-0---0------0-0---0-0-0/3------0-0---0------0-0---0-0---5----|
      pm           pm    pm  v        pm           pm    pm

E|-------------------------------------------------------------------|
B|-------------------------------------------------------------------|
G|------0------------0------------------0---------------0------------|
D|------0------------0------------------0---------------0-----7------| 
A|--2-----2------2-----2------------2-----2-----x-x-2-----2---5-7----|
E|--0-0---0------0-0---0-0-0/3------0-0---0-----x-x-0-0---0-0---5----|
      pm           pm    pm  v        pm              pm    pm

E|--------------------------------------|
B|--------------------------------------|
G|------0----------------------0--------|
D|------0----------------------0--------|
A|--2-----2------x-2-x-2-x-2-----2------|
E|--0-0---0------x-0-x-0-x-0-0---0-0-0/3|
      pm                     pm    pm  v 

E|--------------------------------------|
B|--------------------------------------|
G|------0----------------------0--------|
D|------0----------------------0--------|
A|--2-----2------x-2-x-2-x-2-----2---5-7|
E|--0-0---0------x-0-x-0-x-0-0---0-0-3-5|
      pm                     pm    pm     

E|--------------------------------------|
B|--------------------------------------|
G|------0----------------------0--------|
D|------0----------------------0--------|
A|--2-----2------x-2-x-2-x-2-----2------|
E|--0-0---0------x-0-x-0-x-0-0---0-0-0/3|
      pm                     pm    pm  v 

this should lead you right up to when the bass and effects come in.     
Tap to rate this tab
# A B C D E F G H I J K L M N O P Q R S T U V W X Y Z