Song name
# A B C D E F G H I J K L M N O P Q R S T U V W X Y Z

Brian Vander Ark - And Then You Went Away tab

cool song...enjoy.

verse/intro
e-----0--------0--------0---------------|
b----0-0-0----0-0-0----0-0-0---0---0----|
G---4---0----4---0----4---0---4---4-----|
D--4--------4--------4-------4---4------|
A-2--------0----------------------------|
E-------------------4-------3---2-------|

I've been living in here long enough - reminds me of when times were tough
and i still think about you every day - it's like you never really went away

then, (prechorus?)
e-------0-------0-------|
b-----------------------|
G-----3--3----1--1------|
D---4--4----2--2--------|
A--4-4-----2-2----------|
E-2-------0-------------|play it twice
There were no signs, there were no warnings - saying that it's over
All you left behind was everything.

Chorus (guitar is the same as in the verse)...
You hung your favorite picture so you could see it every day-
then you went away, and then you went away
It's by the window garden you said you'd water every day
then you went away, and then you went away.

Later in the song... (bridge?)
A second guitar comes in here, playing the chords.  Brian fingers around with the chords 
a pattern similar to the prechorus but without the a string.  b and high e strings are 
open.

F#                     E                              F#
I guess it's not over yet - cause when i'm ready to forget
                    G(barre)
I remember where I am.


Great song.  Not too tough.  Lyrics are below if you like.
   -Andrew
Tap to rate this tab
 
# A B C D E F G H I J K L M N O P Q R S T U V W X Y Z