Song name
# A B C D E F G H I J K L M N O P Q R S T U V W X Y Z

Briana Corrigan - Man Is Dead tab

http://en.wikipedia.org/wiki/Briana_Corrigan

Briana Corrigan (Beautiful South)  -  The Man Is Dead

NOTES: Briana Corrigan was the original female singer of UK Band 
"The Beautiful South". Her debut album included the song "The Man 
Is Dead" and "Love Me Now" which was produced by Ian Stanley and 
Chris Hughes (Tears for Fears).



Verses (Standard)

     A                        Aadd9/G#               
E||------------------------|------------------------|
B||--2-------2-------------|--2-------2-------------|
G||--2----------2----------|--4----------4----------|
D||-------2--------2-------|--2----2--------2-------|
A||--0---------------------|------------------------|
E||-------------------0----|--4----------------4----|


  Aadd9/G                  F#                      C                      
------------------------|---------2-------------|--3-------3-------------|
--2-------2-------------|--2---------2----------|--1----------1----------|
--4----------4----------|--3------------3-------|--0-------------0-------|
--2----2--------2-------|--4---------------4----|-------2----------------|
------------------------|-----------------------|--3----------------3----|
--3----------------3----|--2--------------------|------------------------|


  D                        E                        F#m      G#m       
--2-------2-------------|----------0-------------|--------------------|
--3----------3----------|-------------0----------|--------------------|
--2-------------2-------|----------------1-------|--2--------4--------|
-------0----------------|--2----------------2----|--------------------|
------------------------|-------2----------------|--------------------|
--2----------------2----|--0----------------0----|--2--------4--------|




Verses (Variations)


  A                          Aadd9/G#                 
--------------------------|--------------------------|
--2-------2h3p2-----------|--2-------2h3p2-----------|
--2--------------2--------|--4--------------4--------|
-------2------------2-----|--2----2------------2-----|
--0-----------------------|--------------------------|
-----------------------0--|--4--------------------4--|


  Aadd9/G                  F#                      C                      
------------------------|---------2-------------|--3-------3-------------|
--2-------2-------------|--2---------2----------|--1----------1----------|
--4----------4----------|--3------------3-------|--0-------------0-------|
--2----2--------2-------|--4---------------4----|-------2----------------|
------------------------|-----------------------|--3----------------3----|
--3----------------3----|--2--------------------|------------------------|


  D                        E                        F#m      G#m       
--2-------2-------------|----------0-------------|--------------------|
--3----------3----------|-------------0----------|--------------------|
--2-------------2-------|----------------1-------|--2--------4--------|
-------0----------------|--2----------------2----|--------------------|
------------------------|-------2----------------|--------------------|
--2----------------2----|--0----------------0----|--2--------4--------|




Chorus


  A                        Aadd9/G#                 Aadd9/G                
------------------------|------------------------|------------------------|
--2-------2-------------|--2-------2-------------|--2-------2-------------|
--2----------2----------|--4----------4----------|--4----------4----------|
-------2--------2-------|--2----2--------2-------|--2----2--------2-------|
--0---------------------|------------------------|------------------------|
-------------------0----|--4----------------4----|--3----------------3----|


  F#                      Bm7                                             
---------2-------------|--2-------2-------------|--5-------5-------------|
--2---------2----------|--3----------3----------|--3----------3----------|
--3------------3-------|--2-------------2-------|--2-------------2-------|
--4---------------4----|-------4-----------4----|-------4-----------4----|
-----------------------|--2---------------------|--2---------------------|
--2--------------------|------------------------|------------------------|


  E                        F#m      G#m        
----------0-------------|--------------------||
-------------0----------|--------------------||
----------------1-------|--2--------4--------||
--2----------------2----|--------------------||
-------2----------------|--------------------||
--0----------------0----|--2--------4--------||


LYRICS

VERSES:

The man is dead
Bury him at sea
Far away from the trouble

The man is dead
Bury him at sea
Far away from the shore


CHORUS:

And as it drags him under
I'll throw buckets of your tears
And then you'll surround him
Your wet arms around him


The man is dead
Bury him at sea
Far away from the trouble


CHORUS:

And then he was spared us 
Tears of joy
We fall on our knees with thanking


Tap to rate this tab
 
# A B C D E F G H I J K L M N O P Q R S T U V W X Y Z