Song name
# A B C D E F G H I J K L M N O P Q R S T U V W X Y Z

Brick - Fun tab

-------------------------------------------------------------------------------
                             Fun - Brick
-------------------------------------------------------------------------------
Tabbed by: Ash
Tuning: Standard

The whole song uses the same bar chord progression.
Be sure not to strum the low E string.

CHORDS:

e|----0----2----5----|
B|----1----3----6----|
G|----0----2----5----|
D|----2----4----7----|
A|----0----2----5----|
E|----x----x----x----|

Guitar 1

e|----------------------------------------| 
B|----1-------1-----3-----8-------8-----3-|
G|----0-------0-----2-----7-------7-----2-| Repeat This
D|----------------------------------------|   2 Times
A|-0-------0-----2-----7-------7-----2----|
E|----------------------------------------|

Guitar 2

e|-----5--5-|
B|----6---6-|
G|---5----5-| Strum those strings with a down stroke.
D|--7-----7-| Then a quick up stroke and mute strings.
A|-5------5-|
E|----------|

The rest of the song uses the bar chords listed above, I'm sure you guys can figure it out now.

************************************

| /   slide up
| \   slide down
| h   hammer-on
| p   pull-off
| ~   vibrato
| +   harmonic
| x   Mute note
| b   Bend
| pb  Pre-bend
| br  Bend release
| pbr Pre-bend release
| brb Bend release bend

************************************
Tap to rate this tab
 
# A B C D E F G H I J K L M N O P Q R S T U V W X Y Z