Song name
# A B C D E F G H I J K L M N O P Q R S T U V W X Y Z

Brides Of Destruction - I Dont Care tab

i dont care  -  Brides of Destruction

This is my first tab so there may be a few mistakes, but i think it is mostly corect

Intro
e|---------------------------------------------------------------|
B|---------------------------------------------------------------|
G|--7-7-7-7--7-5----------------------------7--5--5-3-5--7--5--3-|   X 3
D|--7-7-7-7--7-5--5-5-5-5--5-3--8-8-8-8--8--7--5--5-3-5--7--5--3-|
A|--5-5-5-5--5-3--5-5-5-5--5-3--8-8-8-8--8--5--3--3---3--5--3--1-|
E|----------------3-3-3-3--3-1--6-6-6-6--6-----------------------|

e|---------------------------------------------------------------------------|
B|---------------------------------------------------------------------------|
G|-7-7-7-7--7-5----------------------------7--5--7-7-5-----------------------|
D|-7-7-7-7--7-5--5-5-5-5--5-3--8-8-8-8--8--7--5--7-7-5--7-5-7-5-7-5-7-5-7-5--|
A|-5-5-5-5--5-3--5-5-5-5--5-3--8-8-8-8--8--5--3--5-5-3--5-3-5-3-5-3-5-3-5-3--|
E|---------------3-3-3-3--3-1--6-6-6-6--6------------------------------------|

Verse

e|-----------------|
B|-----------------|
G|-----------------| X 2
D|-5-5--5-5-5-3----|
A|-5-5--5-5-5-3----|
E|-3-3--3-3-3-1----|

e|---------------------------------------------------------|
B|---------------------------------------------------------|
G|-5/7--7-7-7-7---5/7--7-7-7-7-----------------------------|
D|-5/7--7-7-7-7---5/7--7-7-7-7-----3/5--5-5-5-5---3--------| X2
A|-3/5--5-5-5-5---3/5--5-5-5-5-----3/5--5-5-5-5---3--------|
E|---------------------------------1/3--3-3-3-3---1--------|

e|-------------------|
B|-------------------|
G|-------------------|
D|-------------------|
A|-2222-1111---------|
E|-----------5555-4--|

Chorus

e|---------------------------------------------------------------|
B|---------------------------------------------------------------|
G|--7-7-7-7--7-5----------------------------7--5--5-3-5--7--5--3-|   X 4
D|--7-7-7-7--7-5--5-5-5-5--5-3--8-8-8-8--8--7--5--5-3-5--7--5--3-|
A|--5-5-5-5--5-3--5-5-5-5--5-3--8-8-8-8--8--5--3--3---3--5--3--1-|
E|----------------3-3-3-3--3-1--6-6-6-6--6-----------------------|


Verse

Chorus

After 2nd Chorus play this

e|--------------|
B|--------------|
G|--------------|
D|--2--0--------| X2
A|--0--2--------|
E|--0--3--------|


e|--------------------------------------------------|
B|----3-3-3-3--3-3-3-3------------------------------|
G|----2-2-2-2--2-2-2-2---0-0-0-0--0-0-0-0-----------|
D|----0-0-0-0--0-0-0-0---2-2-2-2--2-2-2-2-----------| X 2
A|----0-0-0-0--0-0-0-0---3-3-3-3--3-3-3-3-----------|
E|--------------------------------------------------|

e|--------------|
B|--3-----------|
G|--2--0-----2--|
D|--0--2--0--2--|
A|--0--3--2--0--|
E|--------3-----|

Intro Riff

Final Chorus
Tap to rate this tab
# A B C D E F G H I J K L M N O P Q R S T U V W X Y Z