Song name
# A B C D E F G H I J K L M N O P Q R S T U V W X Y Z

Brides Of Destruction - 2x Dead tab

    My first tab....pretty shure it's right 
                                             F.1     F.2
 1|--------------------------------------------|------|---------|
 2|-------------------------(intro)------------|------|(nothing)|
 3|--------------------------------------------|------|---------|
 4|-----------------(5)------------------------|------|---------|
 5|-0-0--7-0-3-5-(5)---(5)--0-0-7-0-3-5-0-3-5--|----^-|---------|
 6|-0-0--7-0-3-5------------0-0-7-0-3-5-0-3-5--|-00-3-|---------|

 1|------------------------|           \=slide left
 2|--------(intro,con't)---|           x=mute
 3|------------------------|4x         :=rest
 4|-----------------(5)----|          ()=harmonic
 5|-0-0--7-0-3-5-(5)---(5)-|           ^=bend    
 6|-0-0--7-0-3-5-----------|           *=let ring
                                   F.1      F.2
 1|-----------------------------------|------|-------|
 2|---------(verse)-------------------|------|-------|
 3|-------------10------10--12----10--|-(4x)-|-(4x)--|
 4|-12------12--10------10--9-----8---|------|-------|
 5|-----------------------------------|-0345-|-0-3-5-|
 6|-0---------------------------------|-0345-|-0-3-5-|

 1|------------------------------------|
 2|------------------------------------|
 3|-----------(pre chorus)-------------|
 4|------------------------------------|
 5|-0-0-x3------0-0-:------------------|
 6|-0-0-x3------0-0----x5--6-5-3-5-3---|

 1|-------------------------------------------|-----|
 2|-------------5---6---5--------(chorus)-----|-----|
 3|-------------------------------------------|-(7x)| 2x
 4|-----------5---5---5-----------------------|-----|
 5|-0-----3----------------5-:-6--6-5-3-5-3-0-|----5|
 6|-0-----3----------------5-:-6--6-5-3-5-3-0-|-0-0-|
 F.1                     F.2                    x x
 1|---(new verse end)-----|-----------|
 2|-----------------------|-----------|
 3|-9---------------------|---(5x)----|
 4|-7---------------------|-----------|
 5|-0-------x\------------|-0-3-5-----|
 6|-0-------x\------------|-0-3-5-----|

 1|---(thingy)|--------------------------|
 2|-----------|--------------------------|
 3|-----------|(4x)----------------------|(4x)
 4|-(13x)-----|--------------------------|
 5|-7-----8-8-|--------------------------|
 6|-7-----8-8-|-0-0-3-0-6-5-0--0-3-0-6-5-|

 1|-----(pre chorus end)---|
 2|------------------------|
 3|------------------------|
 4|------------------------|
 5|-------------------0----|
 6|-5-----6-5-3-5-3-6-0----|

 1|-------0-------|------0-----|-------0---|------0---|------0---------|
 2|---------------|------------|-----------|----------|----------------|
 3|----10---10----|----9----9--|----9----9-|----9---9-|----7---7-------|(2x)
 4|--12-------(4x)|--10----(4x)|--9---(2x)-|--8-(2x)--|--7------(4x)---|
 5|---------------|------------|-----------|----------|----------------|
 6|-------(bridge)|------------|-----------|----------|----------------|

 1|-------------------------|
 2|---------(end)-----------|
 3|-------------------------|
 4|-------------------------|
 5|-/6------6-5-3-5-3-0-----|
 6|-/6------6-5-3-5-3-0-----|

 1|-------------------------------------------|
 2|--------9-----(end,con't)------------------|
 3|------7------------------------------------|
 4|---/6--------------------------------------|
 5|---------------/6--6-5-3-5-3-0-0-----------|
 6|---------------/6--6-5-3-5-3-0-0-----------|

 so...yeah..I think it's 100%....If it     
 isn't...e-mail me..   i_don_know_much@hotmail.com
 ENJOY!!
Tap to rate this tab
# A B C D E F G H I J K L M N O P Q R S T U V W X Y Z