Song name
# A B C D E F G H I J K L M N O P Q R S T U V W X Y Z

Bridge - Kasama tab

    Kasama by: siakol
Song: Kasama
Album: rekta
Tabbed by: alay
any comments e-mail:alay_slash@yahoo.com

intro:

G|-------------------------------|
D|-------------------------------|(4x)
A|---0-5---0-5-------------------|
E|-0-----0-----3-----------------|


G|---------------------------------------------------------|
D|---4-----------------------------------------------------|(4x)
A|-------5----0-5-----0-5----0-5--4h5p4-4------------------|
E|-3---3----3-----0-3------3-------------------------------|(P.M......................................)

       (Hangin ka sa king paglipad...)
D|---4-----------------------------------------------------|(4x)
A|-------5----0-5-----0-5----0-5--4h5p4-4------------------|
E|-3---3----3-----0-3------3-------------------------------|(P.M......................................)

(1st after first stanza)
D|----4-5-4-5------0-----0---1h0---------------------------|
A|---------------0-----0---------2-------------------------|
E|-0----------3------3-------------------------------------|
(then back) 

(2nd after stanza)

D|--------------------------------------------------------|
A|-----5-----------------5--------------------------------|
E|-3-5---3-5--3-5/7--3-5---3-5--3--3----------------------|

Chorus:
      (nasan ka na........)
e|--------------------------------------------------------------|
B|--------------------------------------------------------------|
G|-9------------------------------------------------------------|
D|-9(8x)-10-----9-----7-----5-4-(Back)--------------------------|
A|-7-----10(8x)-9(8x)-7(8x)-5-4---------------------------------|
E|--------8-----7-----5-----3-2---------------------------------|

(Second stanza)

solo:

e|--------------------------------------------------------|
B|-5-555-5-7-8-----5-7-8--------5-7-8-8/10-10101010-8-7-5-|
G|-------------5555------4-44-4---------------------------|
D|--------------------------------------------------------|
A|--------------------------------------------------------|
E|--------------------------------------------------------|

e|-----------------------------------------------------7/-|
B|-5-555-5-7-8-----5-7-8--------5-7-8-8/10-10101010-8-7---|
G|-------------5555------4-44-4---------------------------|
D|--------------------------------------------------------|
A|--------------------------------------------------------|
E|--------------------------------------------------------|

e|-12-12121212-12-14-15--------------14-15----------------14-15-|
B|----------------------13-131313-13-------12-12121212-12-------|
G|--------------------------------------------------------------|
D|--------------------------------------------------------------|
A|--------------------------------------------------------------|
E|--------------------------------------------------------------|

e|-15/17-1717171717-15-14-12------------------------------------|
B|--------------------------------------------------------------|
G|--------------------------------------------------------------|
D|--------------------------------------------------------------|
A|--------------------------------------------------------------|
E|--------------------------------------------------------------|

e|-12-12121212-12-14-15--------------14-15----------------14-15-|
B|----------------------13-131313-13-------12-12121212-12-------|
G|--------------------------------------------------------------|
D|--------------------------------------------------------------|
A|--------------------------------------------------------------|
E|--------------------------------------------------------------|

e|-15/17-1717171717-15-14-12/-----------------------------------|
B|--------------------------------------------------------------|
G|--------------------------------------------------------------|
D|--------------------------------------------------------------|
A|--------------------------------------------------------------|
E|--------------------------------------------------------------|

(2nd guitar.)
e|--------------------------------------------------------------|
B|--------------------------------------------------------------|
G|-9------------------------------------------------------------|
D|-9(8x)-10-----9-----7-----5-4-(Back)--------------------------|
A|-7-----10(8x)-9(8x)-7(8x)-5-4---------------------------------|
E|--------8-----7-----5-----3-2---------------------------------|

e|--------------------------------------------------------------|
B|--------------------------------------------------------------|
G|--------------------------------------------------------------|
D|-2--5-5-5-5---2-5-5-5-5----2--5-5-5-5--2-4-5------------------|(4x)
A|-2--5-5-5-5---2-5-5-5-5----2--5-5-5-5--2-4-5------------------|
E|-0--3-3-3-3---0-3-3-3-3----0--3-3-3-3--0-2-3------------------|

(Repeat churos:)

yan lang po!! enjoy kayo iaalay ko ito sa bestfriend ko sa davao na c 
Joeven musta ka na pre
Tap to rate this tab
 
# A B C D E F G H I J K L M N O P Q R S T U V W X Y Z