Song name
# A B C D E F G H I J K L M N O P Q R S T U V W X Y Z

Bridgit Mendler - All I See Is Gold chords

Highlighted       Show chord diagrams
All I See Is Gold

*=one strum
Capo 4

Chords:

   Am       F       C         G
|---0-------0-------0--------3---|
|---1-------1-------1--------3---|
|---2-------2-------0--------0---|
|---2-------3-------2--------0---|
|---0-------3-------3--------2---|
|---0-------0-------0--------3---|

OR (If you don't play with a capo)

     E         Em        A
 |---0---------0---------0---|
 |---0---------0---------2---|
 |---1---------2---------2---|
 |---2---------2---------2---|
 |---2---------0---------0---|
 |---0---------0---------0---|

Note: it is a version of an Em

Intro: 
Am F C F C* G*

Verse 1

Am
     I've got a sea of flowers

But all these nights are just 

F      C 
Mine alone,

F        C* G*
No one's ho-me

Am
Buy me the finest china


But dinner's always just

F    C
Me alone,

         F      C* G*
With the heater o-n

Pre-Chorus

F
Left to your on devices,

C
A Master of Disguises,

G
Why Is it not surprising?

Am
It's like you're Midas!

Chorus

Am
Ohhhhhhhh

Ohhhhhhhh

    F             C
Now All I See Is Gold!

F           C* G*
All I See Is Go-ld! X2

Bridge

Am*F*C*G*C*F*
Ahhhhhhhhhhhh

Am
And when you hold my hand,

F*C*G*Am*

F
I don't feel anything,

C*G*Am*F*C*F*

Am
All I feel is cold,

    F                          
And All I See is Gold,

    F       C
Oooooooooooo

G*
It's like you're Midas!




Repeat chorus and you're done

SB11
Tap to rate this tab
# A B C D E F G H I J K L M N O P Q R S T U V W X Y Z