Song name
# A B C D E F G H I J K L M N O P Q R S T U V W X Y Z

Bridgit Mendler - 5 15 Acoustic chords

Highlighted       Show chord diagrams
Artist: Bridgit Mendler
Song: 5:15 (acoustic)
Video: http://www.youtube.com/watch?v=BDuqHIpYvns
Transcription: satir3, satir3@net.hr

Tuning: standard, NO Capo

Note: listen to the song
and watch the video for the rhythm
and the timings. He likes the 7th chords,
so he often plays them, also he mutes
and pulls offs, hammer ons, and
slides (often from F to D#),
you'll see in the video.

Chords used:
Cm: 8.10.10.8.8.8 (often Cm7: 8.10.8.8.8.8)
D#: x.6.8.8.8.x  
A#: 6.8.8.7.6.6  (often A#7: 6.8.6.7.6.6)
F:  x.8.10.10.10.x (often F7: x.8.10.8.10.x)
G#: 4.6.6.5.4.4 
fp: fingerpicking

Intro:
Cm D# A# F x2

Verse:
        Cm
I want a talk show
          D#
Guess that'll have to do
    A#
Up all night
  F
BBM-ing you
       Cm
Outta tylenol
      D#
Head still aches
     A#                        F
Got enough strength to flip a pancake
       Cm
Got the luggage packed
        D#
Waiting by the front
        A#
Quarter after five
        F
It's already one
Cm               D#
I'll say it one last time
 A#              F
Walking out the door 4:59

Chorus:
G#           D#
5:15 not a minute more
 A#                       
Ready for the knock on my door
G#            D#
5:15 not a minute more
A#                
Ready for the waves on my shore
        G#               D#
And at 5:16 if you're not with me
 A#                   
You can catch me in the next city
 G#                   D#
Never knew you meant that much to me
A#            
Until 5:15

Cm D# A# F 

Verse:
I think I've come done
Sick on puppy love
Wanna break out
Think I've had enough
The walls are caving in
And my think skin is feeling kinda thin
You find your way back in
Never thought it meant
When we came to june
I would feel this way about you
But I'll say it one last time
I'm walking out the door for 4:59

Chorus:
5:15 not a minute more
Ready for the knock on my door
5:15 not a minute more
Ready for the waves on my shore
And at 5:16 if you're not with me
You can catch me in the next city
Never knew you meant that much to me
Until 5:15

Solo: (look at the bottom of the page)
Na na na na
Na na na na
Na na na na
Na na na na

Chorus:
5:15 not a minute more
Ready for the knock on my door
5:15 not a minute more
Ready for the waves on my shore
And at 5:16 if you're not with me
You can catch me in the next city
Never knew you meant that much to me
I won't wait another minute, no
When the waves are at my shore
Ready for the waves on my shore
And at 5:16 if you're not with me
You can catch me in the next city
Never knew you meant that much to me

Ending:
      Cm D# A# F   Cm D# A#
Until fi-i-i-i-ve
   F       Cm D# 
Oh oh oh oh
      A#              F         
I'll be waiting for you
   Cm D# A#    F   
Oh oh oh oh
(fp*) Cm   D#
     At 5:15
A#     F       Cm 
Mmmmmm mmmmmmm
D#     A#      F (stop)
Ehhhhh Ehhhhhh


Solo:
e|---------------------------------------|
B|---------------------------------------|
G|--5----5-/-7--8----10/-12--10--x-x-x-x-|
D|--x----x-/-x--x----x-/-x---x---x-x-x-x-|
A|--3----3-/-5--6----8-/-10--8---x-x-x-x-|
E|---------------------------------------| x2

e|---------------------------------------------------------------------|
B|---------------------------------------------------------------------|
G|-------------7/8bu--------------7/8bu--------------------------------|
D|--10p8--10------------10p8--10-----------8-8-10-12---8-8-10/12-7bu---|
A|---------------------------------------------------------------------|
E|---------------------------------------------------------------------| x2

Fingerpicking (fp*):
  Cm          A#            D#          F
e|----------------------------------------------------------|
B|------------------8-8---------------------10-10-----------|
G|-----8-8----------------------7-7-------------------------|
D|----------------------------------------------------------|
A|-------------6-6------6---------------8-8-------8---------|
E|-8-8-----8----------------6-6-----6-----------------------| 

  Cm          A#            D#          F7
e|----------------------------------------------------------|
B|------------------8-8-----------------10------------------|
G|-----8-8----------------------7-7-----8-------------------|
D|--------------------------------------10------------------|
A|-------------6-6------6---------------8-------------------|
E|-8-8-----8----------------6-6-----6-----------------------|
Tap to rate this tab
# A B C D E F G H I J K L M N O P Q R S T U V W X Y Z