Song name
# A B C D E F G H I J K L M N O P Q R S T U V W X Y Z

Bridies Banquet - Naughty Fridge tab

Bridie's Banquet,Naughty Fridge.
Tabbed by jim layley,gimpini99@altavista.com.
  
Here's Bridie's Banquet's first song!!!

Dropped D tuning

xx:palm muting

e-----------------------------------------------------
B-----------------------------------------------------
G-----------------------------------------------------
D--7-7-7-7-7-7-7-7--7-7-7-7-7-7-7-7-------------------
A-5-5-5-5-5-5-5-5-------------------------------------
D------------------5-5-5-5-7-7-7-7--------------------
 xxxxxxxxxxxxxxxxxxxxxxxxxxxxxxxxxx    
repeat x4 for intro and verses

Chorus w/distortion
e-----------------------------------------------------
B-----------------------------------------------------
G-7-7-7-7---------------------------------------------
D-7-7-7-7-7-7-7-7-9-9-9-9-5-5-5-5---------------------
A-5-5-5-5-7-7-7-7-9-9-9-9-5-5-5-5---------------------
D---------7-7-7-7-9-9-9-9-5-5-5-5---------------------
Play x4

Bridge
e-----------------------------------------------------
B-----------------------------------------------------
G-7-7-7-7---------------------------------------------
D-7-7-7-7---------------------------------------------
A-5-5-5-5--5-5-5-5-4-4-4-4-4-4-4-4--------------------
D----------5-5-5-5-4-4-4-4-4-4-4-4--------------------

Cheers from jim tim and joe


:: Ultimate Guitar Archive :: 
http://www.ultimate-guitar.com 

Tap to rate this tab
# A B C D E F G H I J K L M N O P Q R S T U V W X Y Z