Song name
# A B C D E F G H I J K L M N O P Q R S T U V W X Y Z

Briefs - Genital General tab

The counting is assuming you're using all down strokes. If you chose not to and use some 
strumming pattern, adjust the counting as needed. I'm fairly sure about all of it. The 
is a rough outline of what they play. Mess with it. Have fun

Genital General

VERSE (There's more to being famous...)
e:
B:
G:3-----8----3--|
D:4-----9----4--|
A:4-----9----4--|
E:2-X16-7-X8-2--|X8

X2

CHORUS (Go for pain)
e:
B:
G:3-8-3-9-9-8-8-|
D:4-9-4-9-9-9-9-|
A:4-9-4-7-7-9-9-|
E:2-7-2-----7-7-|
X3
(Escape your blues)
e:--------9--9--9--9--|
B:--------9--9--9--9--|
G:9-9-9-9-10-10-10-10-|
D:9-9-9-9-11-11-11-11-|
A:7-7-7-7-11-11-11-11-|
E:--------9--9--9--9--|
X2

PREVERSE
e:
B:
G:3-3-3-3-3-#-3-3-3-3-3-#-3-3-3-3-3-#-8-8-8-9-8--|
D:4-4-4-4-4-#-4-4-4-4-4-#-4-4-4-4-4-#-9-9-9-9-9--|
A:4-4-4-4-4-#-4-4-4-4-4-#-4-4-4-4-4-#-9-9-9-7-9--|
E:2-2-2-2-2-#-2-2-2-2-2-#-2-2-2-2-2-#-7-7-7---7--|

VERSE
e:
B:
G:3-----8----3--|
D:4-----9----4--|
A:4-----9----4--|
E:2-X16-7-X8-2--|X8

CHORUS (Got no blues)
e:
B:
G:3-8-3-9-9-8-8-|
D:4-9-4-9-9-9-9-|
A:4-9-4-7-7-9-9-|
E:2-7-2-----7-7-|
X3
(Don't wait)
e:--------9--9--9--9--|
B:--------9--9--9--9--|
G:9-9-9-9-10-10-10-10-|
D:9-9-9-9-11-11-11-11-|
A:7-7-7-7-11-11-11-11-|
E:--------9--9--9--9--|
X2

PREBRIDGE
e:
B:
G:3-
D:4-
A:4-
E:2-X16

BRIDGE(Soon you'll be all by yourself)
e:----------------9--9--9--9--9--9--9--9--|
B:----------------9--9--9--9--9--9--9--9--|
G:8-8-8-8-8-8-8-8-10-10-10-10-10-10-10-10-|
D:9-9-9-9-9-9-9-9-11-11-11-11-11-11-11-11-|
A:9-9-9-9-9-9-9-9-11-11-11-11-11-11-11-11-|
E:7-7-7-7-7-7-7-7-9--9--9--9--9--9--9--9--|
X2
e:--------9--9--9--9--|
B:--------9--9--9--9--|
G:9-9-9-9-10-10-10-10-|
D:9-9-9-9-11-11-11-11-|
A:9-9-9-9-11-11-11-11-|
E:7-7-7-7-9--9--9--9--|
X1
e:----------------9--9--9--9--9--9--9--9----|
B:----------------9--9--9--9--9--9--9--9----|
G:6-6-6-6-6-6-6-6-10-10-10-10-10-10-10-10---|
D:7-7-7-7-7-7-7-7-11-11-11-11-11-11-11-11---|
A:7-7-7-7-7-7-7-7-11-11-11-11-11-11-11-11---|
E:5-5-5-5-5-5-5-5--9--9--9--9--9--9--9--9---|

SOLO (I apologize for not getting this exactly, it's mainly just a pentatonic scale, so 
around with it. This is a rough outline of it though.)
e:----------------------------------------|
B:----------------------------------------|
G:6-6b------------------------------------|
D:-----9-7---7b-7-9-7-9-7-----------------|
A:---------9--------------9-7---7---------|
E:----------------------------9---9-7-2---|v/

e:7-7-12b-7-5-7-7-5-7-5-------7-9-14b-14b-14b-14---|b/
B:----------------------8-5-8----------------------|
G:-------------------------------------------------|

VERSE (There's more to being brainless)
e:
B:
G:3-----8----3--|
D:4-----9----4--|
A:4-----9----4--|
E:2-X16-7-X8-2--|X8

X2

CHORUS (Couldn't wait to masturbate)
e:
B:
G:3-8-3-9-9-8-8-|
D:4-9-4-9-9-9-9-|
A:4-9-4-7-7-9-9-|
E:2-7-2-----7-7-|
X3
(too bad)
e:--------9--9--9--9--|
B:--------9--9--9--9--|
G:9-9-9-9-10-10-10-10-|
D:9-9-9-9-11-11-11-11-|
A:7-7-7-7-11-11-11-11-|
E:--------9--9--9--9--|
X2

PREOUTRO
e:
B:
G:3-
D:4-
A:4-
E:2-X16

OUTRO
e:
B:----------------------|
G:8-9-8-3-3-3-3-3-3-3-3-|
D:9-9-9-4-4-4-4-4-4-4-4-|
A:9-7-9-4-4-4-4-4-4-4-4-|
E:7---7-2-2-2-2-2-2-2-2-|
X8
Tap to rate this tab
# A B C D E F G H I J K L M N O P Q R S T U V W X Y Z