Song name
# A B C D E F G H I J K L M N O P Q R S T U V W X Y Z

Briefs - Run The Other Way tab

 4/4

INTRO
|-----------------------------|
|-----------------------------|
|-5-5-5-5-------8-8-8---------|
|-5-5-5-5--8-8--8-8-8--5-5-5--|
|-3-3-3-3--8-8--6-6-6--5-5-5--|
|----------6-6---------3-3-3--|


 VERSE                                4x
||-----------------------------------||-|
||o---------------------------------o||-|
||--5-5-5-5--------------------------||-|
||--5-5-5-5-5-5-5-5-8-8-8-8-8-8-8-8--||-|
||o-3-3-3-3-5-5-5-5-8-8-8-8-8-8-8-8-o||-|
||----------3-3-3-3-6-6-6-6-6-6-6-6--||-|


PRE-CHORUS
||---------------------------------||-----------------------||--||
||o--------------------------------||o---------------------o||-o||
||--5-5-5-5-8-8-8-8----------------||-----------------------||--||
||--5-5-5-5-8-8-8-8-8-8-8-8-6-6-6--||--10-10-10-10----8-8---||--||
||o-3-3-3-3-6-6-6-6-8-8-8-8-6-6-6--||o-10-10-10-10----8-8--o||-o||
||------------------6-6-6-6-4-4-4--||---8--8--8--8----6-6---||--||
|                                                                |
|   Gtr II                                                       |
||---------------------------------||-----------------------||--||
||o--------------------------------||o---------------------o||-o||
||---------------------------------||--------------10---9---||--||
||---------------------------------||---5-----8-------------||--||
||o--------------------------------||o---------------------o||-o||
||---------------------------------||-----------------------||--||


VERSE                                  4x
||------------------|------------------||
||o-----------------|-----------------o||
||--5-5-5-5---------|------------------||
||--5-5-5-5-5-5-5-5-|-8-8-8-8-8-8-8-8--||
||o-3-3-3-3-5-5-5-5-|-8-8-8-8-8-8-8-8-o||
||----------3-3-3-3-|-6-6-6-6-6-6-6-6--||


PRE-CHORUS
||------------------|----------------||-----------------------||--||
||o-----------------|----------------||o---------------------o||-o||
||--5-5-5-5-8-8-8-8-|----------------||-----------------------||--||
||--5-5-5-5-8-8-8-8-|-8-8-8-8-6-6-6--||--10-10-10-10----8-8---||--||
||o-3-3-3-3-6-6-6-6-|-8-8-8-8-6-6-6--||o-10-10-10-10----8-8--o||-o||
||------------------|-6-6-6-6-4-4-4--||---8--8--8--8----6-6---||--||
|
||------------------|----------------||-----------------------||--||
||o-----------------|----------------||o---------------------o||-o||
||------------------|----------------||--------------10---9---||--||
||------------------|----------------||---5-----8-------------||--||
||o-----------------|----------------||o---------------------o||-o||
||------------------|----------------||-----------------------||--||


CHORUS
|---------------|---------------|---------------|---------------|
|---------------|---------------|---------------|---------------|
|-5-5-5-5-5-----|-5-5-5-5-5-----|-5-5-5-5-5-----|-5-5-5-5-5-----|
|-5-5-5-5-5--8--|-5-5-5-5-5--8--|-5-5-5-5-5--8--|-5-5-5-5-5--8--|
|-3-3-3-3-3--8--|-3-3-3-3-3--8--|-3-3-3-3-3--8--|-3-3-3-3-3--8--|
|------------6--|------------6--|------------6--|------------6--|


PRE-BRIDGE?
||--------------------------|-------------------|
||o-------------------------|-------------------|
||--8--8--------11s12-12-12-|-11s12-12-12-8--8--|
||--8--8--8--8--11s12-12-12-|-11s12-12-12-8--8--|
||o-6--6--8--8--------------|-------------6--6--|
||--------6--6--------------|-------------------|


|-------------------|---------------||
|-------------------|--------------o||
|-------11s12-12-12-|-11s12-12-12---||
|-8--8--11s12-12-12-|-11s12-12-12---||
|-8--8--------------|--------------o||
|-6--6--------------|---------------||
         ^LAST TIME DOESN'T DO THIS, NEVER FIGURED IT OUT, JUST MAKE IT UP


THEN A BRIDGE WHERE ITS MAINLY JUST THE VOCALS, BASS, AND DRUMS. THE GUITAR DURING THIS
IS JUST HITTING HIGH NOTES AND HARMONICS SOMETIMES WITH THE WHAMMY BAR

THE THE GUITAR COMES BACK IN
||------------------|----------------||-----------------------||--||
||o-----------------|----------------||o---------------------o||-o||
||--5-5-5-5-8-8-8-8-|----------------||-----------------------||--||
||--5-5-5-5-8-8-8-8-|-8-8-8-8-6-6-6--||--10-10-10-10----8-8---||--||
||o-3-3-3-3-6-6-6-6-|-8-8-8-8-6-6-6--||o-10-10-10-10----8-8--o||-o||
||------------------|-6-6-6-6-4-4-4--||---8--8--8--8----6-6---||--||
|
||------------------|----------------||-----------------------||--||
||o-----------------|----------------||o---------------------o||-o||
||------------------|----------------||--------------10---9---||--||
||------------------|----------------||---5-----8-------------||--||
||o-----------------|----------------||o---------------------o||-o||
||------------------|----------------||-----------------------||--||

OUTRO
|---------------|---------------|---------------|----------------|
|---------------|---------------|---------------|----------------|
|-5-5-5-5-5-----|-5-5-5-5-5-----|-5-5-5-5-5-----|-5-5-5-5-5------|
|-5-5-5-5-5--8--|-5-5-5-5-5--8--|-5-5-5-5-5--8--|-5-5-5-5-5--8-8-|
|-3-3-3-3-3--8--|-3-3-3-3-3--8--|-3-3-3-3-3--8--|-3-3-3-3-3--8-8-|
|------------6--|------------6--|------------6--|------------6-6-|

BASS IS JUST THE ROOT NOTES ON THIS SONG, I REALLY DIDN'T WANT TO TYPE OUT THE BASS PART TOO.


THIS SONG IS VERY EASY, AND I'M PRETTY SURE THAT I HAVE EVERYTHING CORRECT(BESIDES THAT
BRIDGE PART, SORRY I'M LAZY). IF i HAVE ANYTHING INCORRECT THAT YOU'D LIKE TO TELL ME
FEEL FREE TO SEND ME A MESSAGE, AT BHR1991@NETZERO.COM . PLEASE RATE, HAVE FUN PLAYING 
SONG, AND POGO YOU FUCKERS!
Tap to rate this tab
# A B C D E F G H I J K L M N O P Q R S T U V W X Y Z