Song name
# A B C D E F G H I J K L M N O P Q R S T U V W X Y Z

Briertone - Rebel Kid tab

-------------------------------------------------------------------------------
			     SONG NAME - Band Name
-------------------------------------------------------------------------------
Tabbed by:Sean
Email:seann212@yahoo.com
Tuning:standard

Intro

e|---2-2-/-3---3-/-4-----------4-------------------------------------------------|
B|---3-3-/-4---4-/-5-----3----5--------------------------------------------------|
G|---2-2-/-3---3-/-4---2--2-4------2-----------2---------------------------------|
D|-------------------0-------------2-----------2---------------------------------|
A|---------------------------------0------3p0--0---------3-p-0-------------------|
E|-----------------------------------3-p-0-------0-3-p-0-------------------------|

Verse

 e|------------------------------------------------------------------------------|
B|-------------------------------------------------------------------------------|
G|---2-----------2---5---7-------------------------------------------------------|
D|---2-----------2---5---7-------------------------------------------------------|
A|---0-----3-p-0-0---3---5-------------------------------------------------------|
E|----3p-0-----------------------------------------------------------------------|

http://www.briertone.com/     = this is the official site(under construction)
http://www.myspace.com/briertone = this is the site on myspace, that they have thier music on.

Any questions or tweaks email me  seann212@yahoo.com
Tap to rate this tab
 
# A B C D E F G H I J K L M N O P Q R S T U V W X Y Z