Song name
# A B C D E F G H I J K L M N O P Q R S T U V W X Y Z

Brigade - Asinine tab

e|--------------------------------------------------------------------------|
B|--------------------------------------------------------------------------|
G|--------------------------------------------------------------------------|
D|--------------------------------------------------------------------------|
A|--------------------------------------------------------------------------|
D|-8-0--0--0--0--0--0-8-0-0-0-----------------------------------------------|

X3

On the forth time play:
e|--------------------------------------------------------------------------|
B|--------------------------------------------------------------------------|
G|--------------------------------------------------------------------------|
D|--------------------------------------------------------------------------|
A|--------------------------------------------------------------------------|
D|-8-0--0--0--0--0--0-0-----------------------------------------------------|

let the last 0 ring for a bit, then play:
e|--------------------------------------------------------------------------|
B|--------------------------------------------------------------------------|
G|--------------------------------------------------------------------------|
D|-8-0--0--0--0--0--0-8-0-0-0-8-0--0--0--0--0--0-8-0-0-0--------------------|
A|-8-0--0--0--0--0--0-8-0-0-0-8-0--0--0--0--0--0-8-0-0-0--------------------|
D|-8-0--0--0--0--0--0-8-0-0-0-8-0--0--0--0--0--0-8-0-0-0--------------------|

e|--------------------------------------------------------------------------|
B|--------------------------------------------------------------------------|
G|--------------------------------------------------------------------------|
D|-8-0--0--0--0--0--0-8-0-0-0-8-0--0--0--0--0--0-8/10101010101010-----------|
A|-8-0--0--0--0--0--0-8-0-0-0-8-0--0--0--0--0--0-8/10101010101010-----------|
D|-8-0--0--0--0--0--0-8-0-0-0-8-0--0--0--0--0--0-8/10101010101010-----------|

Then play this again but don't let the notes ring in between each stroke.

Thats all i've got, enjoy :)
Tap to rate this tab
 
# A B C D E F G H I J K L M N O P Q R S T U V W X Y Z