Guitaretab - guitar tabs
Song name
# A B C D E F G H I J K L M N O P Q R S T U V W X Y Z
Home / B / Brigade / Pilot tab

Brigade - Pilot tab

INTRO
Guitar 1 x2
e-------------------------|
B-------------------------|
G-9----13----14----17-----|
D-x(x8)-x(x8)-x(x8)-x(x8)-|
A-7----11----12----15-----|
E-------------------------|

Guitar 2 enters
e----------------------------------|
B----------------------------------|
G----------------------------------|
D----6---9---7-6-------6---9---7-6-|
A-77---7---7---------7---7---7-----|
E----------------------------------|

Guitar 1
e------------------------------------------|
B------------------------------------------|
G-13-----11----9-----8-----6---8-----9-----|
D-x(x4)-x(x4)-x(x4)-x(x4)-x---x(x12)x(x4)-|
A-11-----9-----7-----6-----4---6-----7-----|
E------------------------------------------|

e--------------------------------------------|
B--------------------------------------------|
G-13-----11----9-----8-----6-----5-----11----|
D-x(x4)-x(x4)-x(x4)-x(x4)-x(x8)-x(x4)x(x4)-|
A-11-----9-----7-----6-----4-----3-----9-----|
E--------------------------------------------|

Guitar 2 plays this 3 times          then plays this with guitar 1
e----------------------------------]-------------------|
B----------------------------------]-------------------|
G----------------------------------]-6-----5-----11----|
D----6---9---7-6-------6---9---7-6-]-x(x8)-x(x4)-x(x4)-|
A-77---7---7---------7---7---7-----]-4-----3-----9-----|
E----------------------------------]-------------------|


PRE VERSE both guitars x 2
e--------------------|
B--------------------|
G-9999-9999-9999-99--|
D-9999-9999-9999-99--|
A-7777-7777-7777-77--|
E--------------------|

VERSE 1 x2
Guitar 1
e-------------------------------------|
B-------------------------------------|
G-99999999-66666666-------------------|
D-99999999-66666666-66666666-66666666-|
A-77777777-44444444-66666666-66666666-|
E-------------------44444444-44444444-|

Guitar 2
e---------------------------------------|
B---------------------------------------|
G---------------------------------------|
D----------66666666---------------------|
A-77777777----------66666666-66666666---|
E---------------------------------------|

PRE CHORUS
Guitar 1
e-------------------------|
B-------------------------|
G-9----13----14----17-----|
D-x(x8)-x(x8)-x(x8)-x(x8)-|
A-7----11----12----15-----|
E-------------------------|
[ Tab from: http://www.guitaretab.com/b/brigade/190992.html ]
Guitar 2
e----------------------------------|
B----------------------------------|
G----------------------------------|
D----6---9---7-6-------6---9---7-6-|
A-77---7---7---------7---7---7-----|
E----------------------------------|

CHORUS
Guitar 1
e------------------------------------------|
B------------------------------------------|
G-13-----11----9-----8-----6---8-----9-----|
D-x(x4)-x(x4)-x(x4)-x(x4)-x---x(x12)x(x4)-|
A-11-----9-----7-----6-----4---6-----7-----|
E------------------------------------------|

e--------------------------------------------|
B--------------------------------------------|
G-13-----11----9-----8-----6-----5-----11----|
D-x(x4)-x(x4)-x(x4)-x(x4)-x(x8)-x(x4)x(x4)-|
A-11-----9-----7-----6-----4-----3-----9-----|
E--------------------------------------------|

Guitar 2 plays this 3 times          then
e----------------------------------]---------------------|
B----------------------------------]---------------------|
G----------------------------------]-6-----5-----11------|
D----6---9---7-6-------6---9---7-6-]-x(x8)-x(x4)-x(x4)---|
A-77---7---7---------7---7---7-----]-4-----3-----9-------|
E----------------------------------]---------------------|


PRE VERSE both guitars x 2
e--------------------|
B--------------------|
G-9999-9999-9999-99--|
D-9999-9999-9999-99--|
A-7777-7777-7777-77--|
E--------------------|

VERSE 2 x4
Guitar 1
e-------------------------------------|
B-------------------------------------|
G-99999999-66666666-------------------|
D-99999999-66666666-66666666-66666666-|
A-77777777-44444444-66666666-66666666-|
E-------------------44444444-44444444-|

Guitar 2 enters halfway 
e-12-------12-------12-----14-------14-----------14-|
B----12-------12---------------12-------12-----12---|
G-------13-------13----13---------13--------13------|
D---------------------------------------------------|
A---------------------------------------------------|
E---------------------------------------------------|

Repeat Pre chorus

Repeat Chorus x2

BRIDGE
Guitar 1
e-----------------------------------------------|
B-----------------------------------------------|
G-12-----14-----9-----11---------12-----14------|
Dx-(x12)x-(x12)x(x12)-x-(x12)---x-(x12)x-(x12)-|
A-10-----12-----7------9---------10-----12------|
E-----------------------------------------------|

Guitar 2 mess around with this
e----------|
B----------|
G----------|
D----------|
A-6h7-7777-|
E----------|

Chorus x2

OUTRO x4 Guitar 1
e-------------------|
B-------------------|
G-9999-9999-9999-99-|
D-9999-9999-9999-99-|
A-7777-7777-7777-77-|
E-------------------|

No idea what guitar 2 is doing here
Related for Pilot tab