Song name
# A B C D E F G H I J K L M N O P Q R S T U V W X Y Z

Brigade - Broken Hearts Broken Glass tab

e-----------------235-----------------|
D---------3---------------------------|
C---------------------------7---------|
B-----------4-------------------------|
A------196----------------------------|
E----------------------------------11-|

e-----------------235-----------------|
D---------3---------------------------|
C---------------------------7---------|
B-----------4-------------------------|
A------196----------------------------|
E----------------------------------12-|

e-----------------235-----------------|
D---------3---------------------------|
C---------------------------7---------|
B-----------4-------------------------|
A------196----------------------------|
E----------------------------------11-|

e-----------------235-----------------|
D---------3---------------------------|
C---------------------------7---------|
B-----------4-------------------------|
A------196----------------------------|
E----------------------------------12-|
Tap to rate this tab
# A B C D E F G H I J K L M N O P Q R S T U V W X Y Z