Guitaretab - guitar tabs
Song name
# A B C D E F G H I J K L M N O P Q R S T U V W X Y Z

Briggs - Back To Higher Ground tab

-------------------------------------------------------------------------------
			     Back To Higher Ground - The Briggs
-------------------------------------------------------------------------------
Tabbed by: Brian
Email: arng.edwards_b@yahoo.com

Tuning: Standard. 2 guitars of course. Joey on rhythm. Jason on lead.
I've seen them live 3 times this year and I had to get this figured out.
This is my first tab so I'm glad I got it all right. The solo was in fact
by ear and one of the first things I've figured out by ear. I'm pretty
happy to have this song down. Enjoy.


Intro:

e|-----------------------------------------------------------------|
B|-----------------------------------------------------------------|
G|-----------------------------------------------------------------|
D|-----------------------------------------------------------------|
A|/8---6---4---4-4----------------/9---8---6---4----------/8---6---|
E|-----------------6---4---2---------------------6-4-----4---------|
 
e|-----------------------------------------------------------------|
B|-----------------------------------------------------------------|
G|-6---6---6-6-6-6-----------------8---8---8-8-8-8-----------------|
D|-6---6---6-6-6-6-4---4---4-4-4-4-8---8---8-8-8-8-6---6---6-6-6-6-|
A|-4---4---4-4-4-4-4---4---4-4-4-4-6---6---6-6-6-6-6---6---6-6-6-6-|
E|-----------------2---2---2-2-2-2-----------------4---4---4-4-4-4-|



e|-----------------------------------------------------------------|
B|-----------------------------------------------------------------|
G|-----------------------------------------------------------------|
D|-----------------------------------------------------------------|
A|/8---6---4---4-4----------------/9---8---6---4-------------------|
E|-----------------6---4---2---------------------6-4---4-4-4-4-4-4-|
                                                       x x x x x x
e|-----------------------------------------------------------------|
B|-----------------------------------------------------------------|
G|-6---6---6-6-6-6-----------------8---8---8-8-8-8-----------------|
D|-6---6---6-6-6-6-4---4---4-4-4-4-8---8---8-8-8-8-6---6-6-6-6-6-6-|
A|-4---4---4-4-4-4-4---4---4-4-4-4-6---6---6-6-6-6-6---6-6-6-6-6-6-|
E|-----------------2---2---2-2-2-2-----------------4---4-4-4-4-4-4-|
                                                       x x x x x x 


Verse:  (x2)

e|-----------------------------------------------------------------------|
B|-----------------------------------------------------------------------|
G|-6---6-6-6-6-6-6-------------------------------------------------------|
D|-6---6-6-6-6-6-6-6---6-6-6-6-6-6--(x3)-4---4-4-4---4-4-6---6-6-6---6-6-|
A|-4---4-4-4-4-4-4-6---6-6-6-6-6-6-------4---4-4-4---4-4-6---6-6-6---6-6-|
E|-----------------4---4-4-4-4-4-4-------2---2-2-2---2-2-4---4-4-4---4-4-|
       x x x x x x     x x x x x x           x x     x x     x x      
e|-----------------------------------------------------------------------|
B|-----------------------------------------------------------------------|
G|-6---6-6-6-6-6-6-------------------------------------------------------|
D|-6---6-6-6-6-6-6-6---6-6-6-6-6-6--(x3)-4---4-4-4---4-4-6---6-6-6---6-6-|
A|-4---4-4-4-4-4-4-6---6-6-6-6-6-6-------4---4-4-4---4-4-6---6-6-6---6-6-|
E|-----------------4---4-4-4-4-4-4-------2---2-2-2---2-2-4---4-4-4---4-4-|
       x x x x x x     x x x x x x           x x     x x     x x       


Chorus:

e|-----------------------------------------------------------------------|
B|-----------------------------------------------------------------------|
G|-6---6---6-6-6-6-----------------8---8---8-8-8-8-----------------------|
D|-6---6---6-6-6-6-4---4---4-4-4-4-8---8---8-8-8-8-6---6---6-6-6-6--(x2)-|
A|-4---4---4-4-4-4-4---4---4-4-4-4-6---6---6-6-6-6-6---6---6-6-6-6-------|
E|-----------------2---2---2-2-2-2-----------------4---4---4-4-4-4-------|

e|-----------------------------------------------------------------------|
B|-----------------------------------------------------------------------|
G|-6---6---6-6-6-6-----------------8---8---8-8-8-8-----------------------|
D|-6---6---6-6-6-6-4---4---4-4-4-4-8---8---8-8-8-8-6---6---6-6-6-6--(x2)-|
A|-4---4---4-4-4-4-4---4---4-4-4-4-6---6---6-6-6-6-6---6---6-6-6-6-------|
E|-----------------2---2---2-2-2-2-----------------4---4---4-4-4-4-------|


                                                           1st chorus only
e|---------------------------------------------------------|-------------|
B|---------------------------------------------------------|-------------|
G|---------------------------------------------------------|-------------|
D|-4-----------------------4---4-4-4-----6---6---6---6---6-|-6-----------|
A|-4-----------------------4---4-4-4-----6---6---6---6---6-|---6-6-------|
E|-2-----------------------2---2-2-2-----4---4---4---4---4-|-------4-4-4-|
                                                             + + + + + +
e|-----------------------------------------------------------------------|
B|-----------------------------------------------------------------------|
G|-----------------------------------------------------------------------|
D|-4-----------------------4---4-4-4-----6---6---6---6---6---------------|
A|-4-----------------------4---4-4-4-----6---6---6---6---6---------------|
E|-2-----------------------2---2-2-2-----4---4---4---4---4---------------|


(Verse)

(Chorus)

Solo:

e|---------------|----------------------------------|
B|-Con't from----|----------------------------------|
G|-2nd Chorus----|/10---8---6-6-6-6-----------------|
D|---------------|------------------8---6-8-6-4-4---|
A|-6-6-----6-6-6-|----------------------------------|
E|---------------|----------------------------------|
   + +     + + +
e|---------------|----------------------------------|
B|---------------|----------------------------------|
G|---------------|--6---6---6-6-6-6-----------------|
D|---------------|--6---6---6-6-6-6-4---4---4-4-4-4-|
A|---------------|--4---4---4-4-4-4-4---4---4-4-4-4-|
E|---------------|------------------2---2---2-2-2-2-|


10s and 8s are close for timing. The / indicates a slide on the notes below it.
e|------------------------------------------------------------------|
B|-----------------------------/---------------/--------------------|
G|/11-1010-8-8-6------------8-810---8-6-6---6-810~------------------|
D|----------------8-6-6-6---------------------------4---4-6-8-8-8-8-|
A|------------------------------------------------------------------|
E|------------------------------------------------------------------|

e|------------------------------------------------------------------|
B|------------------------------------------------------------------|
G|--8---8---8-8-8-8-----------------6---6---6-6-6-6-----------------|
D|--8---8---8-8-8-8-6---6---6-6-6-6-6---6---6-6-6-6-4---4---4-4-4-4-|
A|--6---6---6-6-6-6-6---6---6-6-6-6-4---4---4-4-4-4-4---4---4-4-4-4-|
E|------------------4---4---4-4-4-4-----------------2---2---2-2-2-2-|


[ Tab from: http://www.guitaretab.com/b/briggs/92399.html ]
e|--------------------------------------------|
B|--------------------------------------------|
G|-8---81011--10-8-6--------------------------|
D|-------------------8-6-6-6-8-6-4-4------(4)-|
A|--------------------------------------------|
E|--------------------------------------------|

e|--------------------------------------------|
B|--------------------------------------------|
G|-8---8---8-8-8-8----------------------------|
D|-8---8---8-8-8-8-6---6---6-6-6-6-4------(4)-|
A|-6---6---6-6-6-6-6---6---6-6-6-6-4------(4)-|
E|-----------------4---4---4-4-4-4-2------(2)-|



Jason's part may not be there. I'm not certain. Could be bass.
e|---------------|-----------------------------------|
B|---------------|-----------------------------------|
G|---------------|-----------------------------------|
D|---------------|-----------------6------(6)--------|
A|---------------|-----------------6------(6)--------|
E|---------------|-----------------4------(4)--------|

e|---------------|-----------------------------------|
B|---------------|-----------------------------------|
G|---------------|-----------------------------------|
D|-6------(6)----|-4------(4)------6------(4)---(x4)-|
A|-6------(6)----|-4------(4)------6------(4)--------|
E|---------------|-----------------------------------|



e|-------------------------------|
B|-------------------------------|
G|-------------------------------|
D|-4-4-4-4-4-4-4-4-6-6-6-6-6-6-6-|
A|-4-4-4-4-4-4-4-4-6-6-6-6-6-6-6-|
E|-2-2-2-2-2-2-2-2-4-4-4-4-4-4-4-|
   x x x x x x x x x x x x x
e|-------------------------------|
B|-------------------------------|
G|-------------------------------|
D|-4-4-4-4-4-4-4-4-6-6-6-6-6-6-6-|
A|-4-4-4-4-4-4-4-4-6-6-6-6-6-6-6-|
E|-2-2-2-2-2-2-2-2-4-4-4-4-4-4-4-|
   x x x x x x x x x x x x x



e|-----------------------------------------------------------------|
B|-----------------------------------------------------------------|
G|-6-6-6-6-6-6-6-6-----------------6-6-6-6-6-6-6-6-----------------|
D|-6-6-6-6-6-6-6-6-6---------------6-6-6-6-6-6-6-6-6---+-+-----+-+-|
A|-4-4-4-4-4-4-4-4-6---------------4-4-4-4-4-4-4-4-6---+-+-----+-+-|
E|-----------------4-------------------------------4---+-+-----+-+-|

e|-----------------------------------------------------------------|
B|-----------------------------------------------------------------|
G|-6-6-6-6-6-6-6-6-----------------6-6-6-6-6-6-6-6-----------------|
D|-6-6-6-6-6-6-6-6-6---------------6-6-6-6-6-6-6-6-6---------------|
A|-4-4-4-4-4-4-4-4-6---------------4-4-4-4-4-4-4-4-6---------------|
E|-----------------4-------------------------------4---------------|



e|---------------------------------------------------|
B|---------------------------------------------------|
G|-6-6-6-6-6-6-6-6-----------------------------------|
D|-6-6-6-6-6-6-6-6-6-6-6-6-6-6-6-6-4------(4)------4-|
A|-4-4-4-4-4-4-4-4-6-6-6-6-6-6-6-6-4------(4)------4-|
E|-----------------4-4-4-4-4-4-4-4-2------(2)------4-|

e|---------------------------------------------------|
B|---------------------------------------------------|
G|-6-6-6-6-6-6-6-6-----------------------------------|
D|-6-6-6-6-6-6-6-6-6-6-6-6-6-6-6-6-4------(4)------4-|
A|-4-4-4-4-4-4-4-4-6-6-6-6-6-6-6-6-4------(4)------4-|
E|-----------------4-4-4-4-4-4-4-4-2------(2)------4-|



Chorus/Outro:

e|-----------------------------------------------------------------------|
B|-----------------------------------------------------------------------|
G|-6---6---6-6-6-6-----------------8---8---8-8-8-8-----------------------|
D|-6---6---6-6-6-6-4---4---4-4-4-4-8---8---8-8-8-8-6---6---6-6-6-6--(x2)-|
A|-4---4---4-4-4-4-4---4---4-4-4-4-6---6---6-6-6-6-6---6---6-6-6-6-------|
E|-----------------2---2---2-2-2-2-----------------4---4---4-4-4-4-------|

e|-----------------------------------------------------------------------|
B|-----------------------------------------------------------------------|
G|-6---6---6-6-6-6-----------------8---8---8-8-8-8-----------------------|
D|-6---6---6-6-6-6-4---4---4-4-4-4-8---8---8-8-8-8-6---6---6-6-6-6--(x2)-|
A|-4---4---4-4-4-4-4---4---4-4-4-4-6---6---6-6-6-6-6---6---6-6-6-6-------|
E|-----------------2---2---2-2-2-2-----------------4---4---4-4-4-4-------|



e|----------------------------------------------------------------------|
B|----------------------------------------------------------------------|
G|----------------------------------------------------------------------|
D|-----------------------------------------------------------------(x2)-|
A|/8---6---4---4-4----------------/9---8---6---4----------/8---6--------|
E|-----------------6---4---2---------------------6-4---4-4--------------|

e|----------------------------------------------------------------------|
B|----------------------------------------------------------------------|
G|-6---6---6-6-6-6-----------------8---8---8-8-8-8----------------------|
D|-6---6---6-6-6-6-4---4---4-4-4-4-8---8---8-8-8-8-6---6---6-6-6-6-(x2)-|
A|-4---4---4-4-4-4-4---4---4-4-4-4-6---6---6-6-6-6-6---6---6-6-6-6------|
E|-----------------2---2---2-2-2-2-----------------4---4---4-4-4-4------|



e|----------------------------|
B|----------------------------|
G|----------------------------|
D|-4------(4)-----(4)-----(4)-|
A|-4------(4)-----(4)-----(4)-|
E|-2------(2)-----(2)-----(2)-|

e|----------------------------|
B|----------------------------|
G|----------------------------|
D|-4------(4)-----(4)-----(4)-|
A|-4------(4)-----(4)-----(4)-|
E|-2------(2)-----(2)-----(2)-|


Lyrics:

I'm introduced to a plague of ignorance
Might be my own but I can't be too sure
Looking to rescued with no sign of deliverance
That can't exist, it can't exist

Hearts can grow so cold
In the heat of the moment
It freezes over like the devil's abode
Don't look so troubled
You're the salt of the earth now
We can't regress, we can't regress

Back to higher ground
Reaching up, we won't back down
Back to higher ground
Reaching up, we won't back down
Back, to higher ground

Hope can dry up like the LA river
But droughts never last forever
A thirst for more is just human nature
We can't regress, no we can't regress

Socially conscious or self-consciously social
Show my true colors like a waving flag
Make up in strife for direction that I lack
We can't regress, we can't regress

Back to higher ground
Reaching up, we won't back down
Back to higher ground
Reaching up, we won't back down
Back, to higher ground

Dancing on the grave
To the sound of savage victory
With the power we possess
We can't regress, we can't regress

Sing a song of freedom
Pay homage to the fathers
That paved the way for sonic liberty
A note that rings so true in all of us
We can't regress, we can't regress

Back to higher ground
Reaching up, we won't back down
Back to higher ground
Reaching up, we won't back down




| /  slide up
| \  slide down
| h  hammer-on
| p  pull-off
| ~  vibrato
| +  harmonic
| x  Mute note
===============================================================================
Related for Back To Higher Ground tab
Advertisement will be closed in 10 seconds