Guitaretab - guitar tabs
Song name
# A B C D E F G H I J K L M N O P Q R S T U V W X Y Z

Bright Eyes - Four Winds tab

-------------------------------------------------------------------------------
			     Four Winds  Bright Eyes
-------------------------------------------------------------------------------
Tabbed by: Dalton Chancey
Email: d.chancey@okstate.edu

Tuning: Standard

e|---------------------------------------------------------------------------|
B|---15-13\11--11-----11h13-------------------------------------------------|
G|---------------------------------------------------------------------------|
D|---------------------------------------------------------------------------|
A|---------------------------------------------------------------------------|
E|---------------------------------------------------------------------------|
[ Tab from: http://www.guitaretab.com/b/bright-eyes/146615.html ]
e|---------------------------------------------------------------------------|
B|---15---15--13/15--11------13h11-------------------------------------------|
G|---------------------------------------------------------------------------|
D|---------------------------------------------------------------------------|
A|---------------------------------------------------------------------------|
E|---------------------------------------------------------------------------|

e|---13---13--15-13----------------------------------------------------------|
B|-------------------15h11-13-11---------------------------------------------|
G|-----------------------------------12----10--------------------------------|
D|---------------------------------------------------------------------------|
A|---------------------------------------------------------------------------|
E|---------------------------------------------------------------------------|


That's basically it. The rest of the intro is just variations on that melody.  I like to 
the 15 on the 13 bent one whole step, but it's really just a personal preference. Good 
and if you have any suggestions, just hit me up.
Related for Four Winds tab