Song name
# A B C D E F G H I J K L M N O P Q R S T U V W X Y Z

Bright Eyes - Happy Birthday To Me tab

e|---------------------------------------------------------------------|
B|---------------------------------------------------------------------|
G|---------------------------------7--9^-9/6-6^6-----------------------|
D|------------------4/7---9---5---------------------7---8--------------|
A|-5h7h9----4^-4--------------------------------------------^9--7^7-5--|
E|---------------------------------------------------------------------|

 1:33
e|----------------------------------------------------------------|
B|----------------------------------------------------------------|
G|--^6-----------------------7--9^9--6--6^6-----------------------|
D|-----7-9------7--9-------------------------7--7-/9--------------|
A|----------5^5-------^9---5---------------------------^9--7^7-5--|
E|----------------------------------------------------------------|
Tap to rate this tab
# A B C D E F G H I J K L M N O P Q R S T U V W X Y Z