Song name
# A B C D E F G H I J K L M N O P Q R S T U V W X Y Z

Bright Eyes - Road To Joy tab

This my version of this amazing song, helped from others on this site, but I think ive 
the best version..let me know otherwise. Thanks all.

Capo First Fret

Intro, repeat
E---------|
B---1---1-|
G---------|
D-----2---|
A-3-------|
E---------|

Verses:
E-------------------------------------|
B---1---1---1---1---1---1-------------|
G------------------0------------------|
D-----0---2---3-------3----3p2--------|
A-3-----------------------------------|
E-------------------------------------|

E---------------------------------|
B---1---1---1---1---1---1---1---1-|
G---------------------------------|
D-----0---2---3---2---2---0---0---|
A-3-------------------------------|
E---------------------------------|

E-------------------------------------|
B---1---1---1---1---1---1-------------|
G------------------0------------------|
D-----0---2---3-------3----3p2--------|
A-3-----------------------------------|
E-------------------------------------|

E-------------------------------------------------------------|
B---1---1---1---1---1---1---1---1---1---1---1---1---1---1-----|
G-------------------------------------------------------------|
D-----0---2---3---2---2-----------2------2-------2-------2----|
A-3-------------------------3--------3-------3-------3--------|
E-------------------------------------------------------------|

(NOTE:) I have seen Conor play the intro section like this:

E-------------------------------------|
B-------------------------------------|
G-------------------------------------|
D---0-2-3-3/5--3-3p2----0-2-3-2-0-0---|
A-3-------------------3---------------|
E-------------------------------------|

E-------------------------------------------|
B------------------------------------1-1----|
G-------------------------------------------|
D---0-2-3-3/5--3-3p2----0-2-3-2-0-----2-----|
A-3-------------------3-----------3-3----3--|
E-------------------------------------------| Repeat C chord into verse

Chorus:
E  Am  F  G  C
Tap to rate this tab
 
# A B C D E F G H I J K L M N O P Q R S T U V W X Y Z