Song name
# A B C D E F G H I J K L M N O P Q R S T U V W X Y Z

Bright Eyes - Landlocked Blues tab

This is a transcription of the other solo tab, Version 2. 

I adjusted it, so it can be played with the capo on the 3rd fret. 

Played with two guitars, it should sound right. 

e|-----------------------3--3h5--3-3---3-3h5-3-5--3p0----3p0-----------------|
B|----3/5--3--3/5-----5-------------------------------5------5--5\3----------|
G|--5-------------5----------------------------------------------------------|
D|---------------------------------------------------------------------------|
A|---------------------------------------------------------------------------|
E|---------------------------------------------------------------------------|

e|---------------------------------------------------------------------------|
B|---------3/5--5\3----------------------------------------------------------|
G|--0h2-5------------5-------------------------------------------------------|
D|---------------------------------------------------------------------------|
A|---------------------------------------------------------------------------|
E|---------------------------------------------------------------------------|
Tap to rate this tab
 
# A B C D E F G H I J K L M N O P Q R S T U V W X Y Z