Bright Eyes - Firewall tab

-------------------------------------------------------------------------------
			    Firewall - Bright Eyes
-------------------------------------------------------------------------------
Tabbed by:Billy Gadsby
Email:billy.gadsby@yahoo.com

Tuning:standard

intro

e|---------------------------------|
B|---------------------------------|
G|------------------0--------------|
D|-2-----2----2--------------------| x2
A|---2-0--------2-0----------------|
E|-0--------0----------------------|

verse

e|---------------------------------|
B|---------------------------------|
G|------------------0--------------|
D|-2-----2----2--------------------| x4
A|---2-0--------2-0----------------|
E|-0--------0----------------------|

C                                            Em
I bought a grey macaw named him Jules Verne  He'll probably outlive me he's a bright bird

e|---------------------------------|
B|---------------------------------|
G|------------------0--------------|
D|-2-----2----2--------------------| x6
A|---2-0--------2-0----------------|
E|-0--------0----------------------|

C                                  Em
Then she melted down to her ankles Turned into a million-watt candle

e|---------------------------------|
B|---------------------------------|
G|------------------0--------------|
D|-2-----2----2--------------------| x2
A|---2-0--------2-0----------------|
E|-0--------0----------------------|

C
Walking through the land of tomorrow
Em
Martian trinkets, plastic Apollos
G
In the sunshine try to act normal
Am
My veins are full of flat cherry-cola

e|---------------------------------|
B|---------------------------------|
G|------------------0--------------|
D|-2-----2----2--------------------| x2
A|---2-0--------2-0----------------|
E|-0--------0----------------------|

C
Dreamt I was riding on a motorbike Lion of Judah painted on the side

the rest of the song basically repeats these parts so you should be able figure it out. 
email me if you need help.
Tap to rate this tab
 
# A B C D E F G H I J K L M N O P Q R S T U V W X Y Z