Bright Eyes - Firewall tab

-------------------------------------------------------------------------------
			     FIREWALL - Bright Eyes
-------------------------------------------------------------------------------
Tabbed by:Daniel Michael
Email:dryanmichael@yahoo.com

Tuning:standard


chadling, archer man... hope you're well,
maybe we all could get together for this
one in Denver..... enjoy... always loved the first
songs......

"sometimes people freak out, just flat flip out"

basic riff (intro)

e|-----------------------------|
B|-----------------------------|
G|---------------------------0-|
D|-----2-------0-----2---------|
A|---0---0---0-----0---0---0---|
E|-0-------3-----0-------3-----|2X

   I do my best to sleep through the caterwaul

e|--------------------------------------------------------------------------|
B|--------------------------------------------------------------------------|
G|--------------------------------------------------------------------------|
D|-----2-------0-----2-------0-----2-------0------2-------0-----------------|
A|---0---0---0-----0---0---0-----0---0---0------0---0---0-------------------|
E|-0-------3-----0-------3-----0-------3------0-------3---------------------|
  
the classicist, the posturing avant-garde

e|-----------------------------|
B|-----------------------------|
G|---------------------------0-|
D|-----2-------0-----2---------|
A|---0---0---0-----0---0---0---|
E|-0-------3-----0-------3-----|

                                I Bought a Grey Macaw named him Jules Verne 

e|------------------------------x-------------------------------------------|
B|------------------------------0---1-------------------------------------3-|
G|--------------------------0h2p0---0---strum---C-------------------------4-|
D|-----2-------0-----2----------2---2-------------------------------------4-|
A|---0---0---0-----0---0---0----3---3-------------------------------------2-|
E|-0-------3-----0-------3--------------------------------------------------|

 Probably outlive me he's a bright bird, keeps me company I'll teach him new words
                                                          
e|----strum-Bm--------------------------------------------------------------|
B|-3------------------------------------------------------------------------|
G|-4--------------------0------------0-------------------------------------0|
D|-4---------------------------0-----------0-------2-------0-------2--------|
A|-2-------------------------0---0-------0---0---0---0---0-------0---0---0--|
E|---------------------0---3-------0---3-------0-------3-------0-------3----|

                    I saw a hologram at the theme park

e|----------------------------------------------------------------------|
B|----------------------------------------------------------------------|
G|---------------------------0---------------------------0--------------|
D|-----2-------0-----2-------------2-------0-----2----------------------|
A|---0---0---0-----0---0---0-----0---0---0-----0---0---0----------------|
E|-0-------3-----0-------3-----0-------3-----0-------3------------------|

looked as real as me through the white fog

e|-----------------------------|
B|-----------------------------|
G|---------------------------0-|
D|-----2-------0-----2---------|
A|---0---0---0-----0---0---0---|
E|-0-------3-----0-------3-----|

                                  then she melted down to her ankles 

e|------------------------------x-------------------------------------------|
B|------------------------------0---1-------------------------------------0-|
G|--------------------------0h2p0---0---strum-C---------------------------x-|
D|-----2-------0-----2----------2---2-------------------------------------x-|
A|---0---0---0-----0---0---0----3---3-------------------------------------2-|
E|-0-------3-----0-------3------------------------------------------------0-|


turned into a million watt can-dle, If i knew where she went I would follow...

e|--------------------------------------------------------------------------|
B|--------------------------------------------------------------------------|
G|--------------------------0--------------------------0--------------------|
D|---strum--Em-----------2--------2------0-----2-------------2-------0h2p0--|
A|---------------------0--------0--0---0-----0---0---0-----0---0---0--------|
E|-------------------0----3---0------3-----0-------3-----0-------3----------|




  walking through the land of tomorrow,   martian trinkets, plastic Apollos 
e|---------------------------------------x----------------------------------|
B|-------1-------------------------------3----------------------------------|
G|-2-2-2-2-----strum-Am------------------2----------------------------------|
D|-2-2-2-2-------------------------------0------strum-D---------------------|
A|-0-0-0-0------------------------------------------------------------------|
E|--------------------------------------------------------------------------|


 
  in the sunshine try to act normal,   her veins are full of flat cherry cola
e|-3-3----------------------------------------------------------------------|
B|---3-----------------------------------1----------------------------------|
G|-0-0-----------------------------------0----------------------------------|
D|-x---and-G-----------------------------2--strum-C-------------------------|
A|-x-x-----------------------------------3----------------------------------|
E|-3-3----------------------------------------------------------------------|

  slept on a bench near the roller-coaster                            Drempt
e|--------------------------------------------------------------------------|
B|---------------------------------------------------------------3----------|
G|---------------------------------------------0-----------------2--ring----|
D|-----2-------0-------2-------0-------2---------0-----2-------0-0----------|
A|---0---0---0---0---0---0---0---0---0---0---0-------0---0---0--------------|
E|-0-------3-------0-------3-------0-------3-------0-------3----------------|

I was riding on a motor bike                     lion of Judah on the side

e|--2--------------0-----3------------------2----------------0---3----2-----|
B|--3---strum------1-----3------------------3----------------1---3----3-----|
G|--2--------------0-----0------------------2----------------0---0----2-----|
D|--0--------------2------------------------0----------------2---0----0-----|
A|-----------------3-----x-----------------------------------3---x----------|
E|-----------------------3---------------------------------------3----------|

 2nd Verse is the same format I think- the main riff is dialed up though, and much tighter.
ahh yea.. and i'm not really sure but this is how I jam out the ending- from the chorus now

na a na (D) na a na (D) na a na (D) and C    B minor   A minor    G      C     then

         (G)                         (C)                      (G)      (Em)
seen yeah seen by I and I    seen yeah seen by I and I   seen yeah seen by I and I

    (C)        (C) (Am)          (G)        (Am) (C)           (G)        (Em)    
seen yeah seen by I and I    seen yeah seen by I and I    seen yeah seen by I and I
    
  (C)       (G)        (C)         (G)        (C)         (G)          (Am)   (Am)
seen yeah   seen yeah   seen yeah   seen yeah  seen yeah  seen yeah  by I and I and


can someone else please start on the rest of the album
Tap to rate this tab
 
# A B C D E F G H I J K L M N O P Q R S T U V W X Y Z