Song name
# A B C D E F G H I J K L M N O P Q R S T U V W X Y Z

Bright Eyes - Firewall tab

-------------------------------------------------------------------------------
			     Bright Eyes - Firewall
-------------------------------------------------------------------------------
Tabbed by: Stephen Buckle

None of the tabs were correct but its real simple.

Please rate, First tab!

Tuning:

e|---------------------------------------------------------------------------|
B|---------------------------------------------------------------------------|
G|-----------------------------------0---------------------------------------|
D|------2---------0--------2-------------------------------------------------|
A|----2---2----2---------2---2-----2-----------------------------------------|
E|--0--------3---------0---------3-------------------------------------------|


Thats mainly it. Il add the rest when i can be bothered.
Tap to rate this tab
 
# A B C D E F G H I J K L M N O P Q R S T U V W X Y Z