Song name
# A B C D E F G H I J K L M N O P Q R S T U V W X Y Z

Bright Eyes - No One Would Riot For Less tab

There are some quite accurate tabs but this one is how he plays it live, and it 
sounds great. Listen to the song for the picking pattern.

Verse
Death my come invisible
E-----------------------------------------------------------------------|
B---------7-----------------7-----------------7-----------------7-------|
G----7-------7--------7--------7--------7--------7---------7-------7----|
D-------9-------9--------9--------9--------9--------9---------9-------9-|
A--9---------------9-----------------9-----------------9----------------|
E-----------------------------------------------------------------------|
  

Or in a Holy wall of fire
E-----------------------------------------------------------------------|
B---------7-----------------7-----------------7-----------------7-------|
G----7-------7--------7--------7--------7--------7---------7-------7----|
D-------7-------7--------7--------7--------7--------7---------7-------7-|
A--0---------------0-----------------0-----------------0----------------|
E-----------------------------------------------------------------------|
  

In the breath between the markers
E--------5----------------5----------------5----------------5----------|
B----------5----------------5----------------5----------------5--------|
G----6-------6--------6-------6--------6-------6--------6-------6------|
D------7----------------7----------------7----------------7------------|
A--0----------------0----------------0----------------0----------------|
E----------------------------------------------------------------------|
   

On some black I-80 mile
E--------2----------------2----------------2----------------2----------|
B----3-----3----------3-----3----------3-----3----------3-----3--------|
G------4-----4----------4-----4----------4-----4----------4-----4------|
D----------------------------------------------------------------------|
A--2----------------2----------------2----------------2----------------|
E----------------------------------------------------------------------|
  

Chorus
So love me now
E--------5----------------5----------------5----------------5----------|
B----------5----------------5----------------5----------------5--------|
G----6-------6--------6-------6--------6-------6--------6-------6------|
D------7----------------7----------------7----------------7------------|
A----------------------------------------------------------------------|
E--5----------------5----------------5----------------5----------------|
   

Hell is coming
E--------2----------------2----------------2----------------2----------|
B----3-----3----------3-----3----------3-----3----------3-----3--------|
G------4-----4----------4-----4----------4-----4----------4-----4------|
D----------------------------------------------------------------------|
A--2----------------2----------------2----------------2----------------|
E----------------------------------------------------------------------|

That is the picking parts.

The strumming parts of the song consists of A, G, D and Bm. Check the other tabs for details.

//nijo
Tap to rate this tab
 
# A B C D E F G H I J K L M N O P Q R S T U V W X Y Z