Song name
# A B C D E F G H I J K L M N O P Q R S T U V W X Y Z

Bright Eyes - Haligh Haligh A Lie Haligh tab

e----------------------------------0-----|
B-----7----------7-----------------3-----|
G---6---6-6----6---6-6------7p6----4-----|      repeat until the chorus
D-4------4---0------0-----7--------4-----|      
A-----------------------0--------2-2-2h4-|
E----------------------------------------|  

NOW FOR THE CHORUS

e-3~--2-------0------------3----------0---------|  
B-3~--3-------2------------3----------2---------|
G-4~--4-------2------------4----------2---------|    this is done once more 
D-5~--4-------2------------5----------2---------|    in the chorus with 
A-5~--2-------0------------5----------0---------|    different lyrics
E-3~--2-------0------------3----------0---------|
      Haligh..this weight..you offer..you know

the rest of the verses and choruses follow the same patterns with small variations 
here and there, except for the ending that you just tack onto the verse riff:

e---0---------|
B---3---------|
G---4---------| repeat this a few times; conor usually does it two or three
D---4---------| times.
A-2-2-2h4-----|
E-------------|

i only put down the barre chords (which I do not know the names of sorry!) with 
the words they transition with because the rythym isn't so easy to convey in tab 
form; but listen to the song and you'll get it quick! 

feel free to ask questions, thanks!
Tap to rate this tab
# A B C D E F G H I J K L M N O P Q R S T U V W X Y Z