Song name
# A B C D E F G H I J K L M N O P Q R S T U V W X Y Z

Bright Eyes - Landlocked Blues tab

All credits go to the version Dirax has posted a while back; however, the album 
version from "I'm wide awake It's morning", 
I believe is played slightly different than what he has posted. At least I am 
struggling to find the correct timing with his/her tab.

                                                      |-The part Ive changed-|
e|-----------------------3--3h5--3-3---3-3h5-5-3p0-------3p0-----------------|
B|----3/5--3--3/5-----5-------------------------------5------5\3-------------|
G|--5-------------5----------------------------------------------------------|
D|---------------------------------------------------------------------------|
A|----------------------------------------------------------------2-0--------|
E|---------------------------------------------------------------------------|

e|---------------------------------------------------------------------------|
B|---------3/5--5\3----------------------------------------------------------|
G|--0h2-5------------5-------------------------------------------------------|
D|---------------------------------------------------------------------------|
A|---------------------------------------------------------------------------|
E|---------------------------------------------------------------------------|
Tap to rate this tab
# A B C D E F G H I J K L M N O P Q R S T U V W X Y Z