Song name
# A B C D E F G H I J K L M N O P Q R S T U V W X Y Z

Bright Eyes - Take It Easy Love Nothing tab

-----------------------------------------------------------------------------
		TAKE IT EASY(Love Nothing) - BRIGHT EYES
-----------------------------------------------------------------------------
Tabbed by: CT FallOutBoy860@aol.com
Email:FallOutBoy860@aol.com
Tuning:standard
i got the outro from the chords tab

verse:
e|---------------------------------------------------------------------------|
B|---------------------------------------------------------------------------|
G|---------------------------------------------------------------------------|
D|---10---------3--------5-------3-------10----------------------------------|
A|---10---------3--------5-------3-------10----------------------------------|
E|---8----------1--------3-------1--------8----------------------------------|
     .          .        .       .        .

chorus:
e|---------------------------------------------------------------------------|
B|---------------------------------------------------------------------------|
G|---------------------------------------------------------------------------|
D|---5-------3-----10------5------3-------7------5------3-----5----10--------|
A|---5-------3-----10------5------3-------7------5------3-----5----10--------|
E|---3-------1------8------3------1-------5------3------1-----3-----8--------|
     .       .      .      .      .       .      .      .     .     .
outro:
e|-----------------------------|-8--------------------------------|
B|10-8--------------10-8-------|----------------------------------|
G|-----10-9-----9--------10-9--|---7-----9------------------------|
D|-----------------------------|---------------10---------------9-|
A|-----------------------------|----------------------------------|
E|-----------------------------|----------------------------------|

e|-------8---------------------|----------------------------------|
B|------------------------8----|----------------------------------|
G|-----------------------------|----------------------------------|
D|10-------------9-10----------|10---7-----9----------------------|
A|-----------------------------|-------------10-------------------|
E|-----------------------------|----------------------------------|

Repeat except for last bar, which becomes


e|-----------------------------|
B|-----------------------------|
G|-----------------------------|
D|7---5------------------------|
A|-----------------------------|
E|-----------------------------|


| .  palm mute
| /  slide up
| \  slide down
| h  hammer-on
| p  pull-off
| ~  vibrato
| +  harmonic
| x  Mute note
=============================================================================
Tap to rate this tab
# A B C D E F G H I J K L M N O P Q R S T U V W X Y Z