Song name
# A B C D E F G H I J K L M N O P Q R S T U V W X Y Z

Bright Eyes - Road To Joy tab

this is my first tab so hope its okay
all the other tabs were close but didnt sound right to me
its in standard tuneing
i think theres a capo on fret one but im not sure
so here it goes

Intro
E|--------------------------|
B|---1-----1------1-----1---|
G|--------------------------|
D|------2------------2------|
A|-3------------3-----------|
E|--------------------------|
ya do that a couple of times

verse
E|-------------------------|----------------------------------|
B|-------------------------|----------------------------------|
G|-------------------------|----------------------------------|
D|-------------------------|----------------------------------|
A|--3--5--7--8--10--7--7-8-|--3--5--7--8--7--5--5-------------|
E|-------------------------|----------------------------------|

E|-------------------------|----------------------------------|
B|-------------------------|----------------------------------|
G|-------------------------|----------------------------------|
D|-------------------------|----------------------------------|
A|--3--5--7--8--10--7--7-8-|--3--5--7--8--7--5--3-------------|
E|-------------------------|----------------------------------|


chorus(just to give you an idea of timeing)
E|----0----------------------------------1----------------------------|
B|----1----------------------------------1----------------------------|
G|----0----------------------------------2----------------------------|
D|----2----------------------------------3----------------------------|
A|----3---------------------------------------------------------------|
E|--------------------------------------------------------------------|
...I Read The Bodycount, Out Of The Paper

E|-------1--------------1--------------0------------------------------|
B|-------1--------------0--------------1------------------------------|
G|-------2--------------0--------------0------------------------------|
D|-------3--------------0--------------2------------------------------|
A|----------------------2--------------3------------------------------|
E|----------------------3---------------------------------------------|
.....And Now Its Writen All Over My Face
Lyrics
********

Verse 1:
The sun came up with no conclusion
It's flowers sleeping in their beds
The cities cometary's humming
I'm wide-awake, it's morning

I have my drugs, I have my woman
They keep away my loneliness
My parents have they have their religion
But sleep in separate houses

chorus:
I read the body count out of the paper
And now it's written all over my face
No one ever plans to sleep out in the gutter
Sometimes that's just the most comfortable place

Verse 2:
So I'm drinking, breathing, writing, singing 
Everyday up on the clock
My mind races with all my longings 
But cant keep up with what I got

I hope I don't sound too ungrateful  
What history gave modern man
The telephone to talk to strangers 
Machine guns and the camera lens

Chorus:
So when you're asked to fight a war that's over nothing
It's best to join the side that's gonna win
And no one's sure how all of this got started
But we're gonna make them goddam certain how its gonna end

Verse 3:
Well I could have been a famous singer
If I had someone else's voice
But failure's always sounded better
Lets fuck it up boys, make some noise

The sun came up with no conclusion
It's flowers sleeping in their beds
The cities cometary's humming
I'm wide-awake, it's morning


if i did anything wrong dont be afraid to call me a n00b:D
and ill fix it
or try anyways...
Tap to rate this tab
# A B C D E F G H I J K L M N O P Q R S T U V W X Y Z