Song name
# A B C D E F G H I J K L M N O P Q R S T U V W X Y Z

Bright Eyes - Hunger For A Holiday tab

----------------------------------------------------------------------------
			     Hungry for a Holiday - Bright Eyes
----------------------------------------------------------------------------
Tabbed by:Swany
Email:pianoman159@hotmail.com


Verse:

e|-------------------------------------------------------------------------|
B|---5-------5-------7-------7-------8-------8-------2-------2-------------|
G|-------0-------0-------0-------0-------0-------0-------0-------0---------|
D|-------------------------------------------------------------------------|
A|---3---------------5---------------7---------------0---------------------|
E|-------------------------------------------------------------------------|

e|-----------0-------------------------------0-----------------------------|
B|---3-----------3-----------3-------------------3-----------3-------------|
G|-------0---------------0-------0-------0---------------0-------0---------|
D|-------------------------------------------------------------------------|
A|---3---------------3---------------3---------------3---------------------|
E|-------------------------------------------------------------------------|


Chorus:

e|-------------------------------------------------------------------------|
B|---8-------8-------10---10-------10---12-------12------------------------|
G|-------0-------0-------------0-------------0--------0--------------------|
D|-------------------------------------------------------------------------|
A|---7---------------9------------------10---------------------------------|
E|-------------------------------------------------------------------------|

e|-------------------------------------------------------------------------|
B|------------12-------12------12-------8-------8-------7-------7----------|
G|--------0--------0-------0--------0-------0-------0-------0-------0------|
D|-------------------------------------------------------------------------|
A|---10----------------10---------------7---------------5------------------|
E|-------------------------------------------------------------------------|

e|-------------------------------------------------------------------------|
B|---5-------5-------------------------------------------------------------|
G|-------0-------0---------------------------------------------------------|
D|-------------------------------------------------------------------------|
A|---3---------------------------------------------------------------------|
E|-------------------------------------------------------------------------|

e|-------------------------------------------------------------------------|
B|---8-------8-------10---10-------10---12-------12------------------------|
G|-------0-------0-------------0-------------0--------0--------------------|
D|-------------------------------------------------------------------------|
A|---7---------------9------------------10---------------------------------|
E|-------------------------------------------------------------------------|

e|-------------------------------------------------------------------------|
B|------------12-------12------12-------8-------8-------7-------7----------|
G|--------0--------0-------0--------0-------0-------0-------0-------0------|
D|-------------------------------------------------------------------------|
A|---10----------------10---------------7---------------5------------------|
E|-------------------------------------------------------------------------|

e|-------------------------------------------------------------------------|
B|---5-------5---------------5---------------4---------------4-------------|
G|-------0-------0-------0-------0-------0-------0-------0-------0---------|
D|-------------------------------------------------------------------------|
A|---3---------------3---------------3---------------3---------------------|
E|-------------------------------------------------------------------------|
Tap to rate this tab
# A B C D E F G H I J K L M N O P Q R S T U V W X Y Z