Song name
# A B C D E F G H I J K L M N O P Q R S T U V W X Y Z

Bright Eyes - The Center Of The World tab

e-----------------|-----------------------------|
b----7-------7----|-------------12-----7----10--|
g------7-------7--|--------9-12----12--7--9-----|
d--5-------4------|---7/9-----------------------|
a-----------------|-----------------------------|
E-----------------|-----------------------------|
                 x8

e-----------------|-----------------------------|
b----7-------7----|-----------------------------|
g------7-------7--|---/4---9--------------------|
d--5-------4------|---/4---9--------------------|
a-----------------|---/2---7--------------------|
E-----------------|-----------------------------|
                 x8



I don't have the song tabbed out completely, but this is a bit of the intro. 
Tap to rate this tab
 
# A B C D E F G H I J K L M N O P Q R S T U V W X Y Z