Song name
# A B C D E F G H I J K L M N O P Q R S T U V W X Y Z

Bright Eyes - Entry Way Song tab

Help us improve GuitareTab! Take a short survey!
Band: Bright Eyes
Song: Entry Way song
Tuning: standard
e-mail: iamtheowl133@aol.com


Intro  x2
	A
E --------------------------------------------------------|
B -------2-----------2---------------3-----------3--------|
G ---2--------2-2-2------2-2-----4--------4-4-4------4-4--|
D --2-2--------2-2-2------2-----4-4--------4-4-4------4---|
A --------------------------------------------------------|
E --------------------------------------------------------|

E --------------------------------------------------------|
B --------------------------------------------------------|
G -------2-----------2---------------1-----------1--------|
D ---4--------4-4-4------4-4-----2--------2-2-2------2-2--|
A --4-4--------4-4-4------4-----2-2--------2-2-2------2---|
E --------------------------------------------------------|
Related for Entry Way Song tab