Song name
# A B C D E F G H I J K L M N O P Q R S T U V W X Y Z

Bright Eyes - When The Curious Girl Realizes She Is Under Glass tab

-------------------------------------------------------------------------------
	WHEN THE CURIOUS GIRL REALIZES SHE IS UNDER GLASS - Bright Eyes
-------------------------------------------------------------------------------
Tabbed by: M. Leaman
Email: msleaman@hotmail.com

Tuning: Standard

Okay, this took a while to tab. It is pretty simple once you have it down.
If you look at this and think "I have no idea what all of this means...", do not fret (ha)
there is a legend at the bottom (scroll down) and you can find out what anything that
might be strange or out of place looking means. Unless there is something I screwed up.
I tried to be careful with it so I wouldn't make it too confusing. I just needed to be thorough.
Just to humor yourself scroll down to the bottom to look at the legend (even if
you think you know it).
If you see a mistake or something that looks wierd that you can't understand just email me
at the email adress above (that would be msleaman@hotmail.com).

So I tabbed out the bass note along with the treble notes.
This my transcription from the piano parts put together in one guitar part.
I put the chords with the measures and on the beats that they are strummed
so if you want, grab a friend and play it together; one can play chords and the other the treble.

Just have fun with it. Questions of comments can go to my email address.

6/8 Time


   C     C   C   G     G   G   Dm    Dm  Dm  G     G
   1             2             3             4
   E E E E E E   E E E E E E   E E E E E E   E E E E E E
e|-------------|-------------|-------------|-------------|
B|-------------|-------------|-------------|-3-0-3-3-0---|
G|-0---0-0---0-|-------------|-2---2-2---2-|-0-----0---0-|
D|---2-----2---|-0---0-0---0-|---3-----3---|-----------5-|
A|-3-----3---3-|---2-----2---|-5-----5---5-|-------------|
E|-------------|-3-----3---3-|-------------|-------------|


   C     C   C   G     G   G   Am        Am         Am        Am         G     G   G   G     G   G
   5             6             7                    8                    9             10
   E E E E E E   E E E E E E   E  S S E  E  S S E   E  S S E  E  S S E   E E E E E E   E E E E E E
e|-------------|-------------|--------------------|--------------------|-------------|-------------|
B|-------------|-------------|--------------------|--------------------|-------------|-------------|
G|-0---0-0---0-|-------------|--------------------|--------------------|-------------|-------------|
D|---2-----2---|-0---0-0---0-|--------------------|--------------------|-0---0-0---0-|-0---0-0---0-|
A|-3-----3---3-|---2-----2---|-0--3-2-0--0--3-2-0-|-0--3-2-0--0--3-2-0-|---2-----2---|---2-----2---|
E|-------------|-3-----3---3-|--------------------|--------------------|-3-----3---3-|-3-----3---3-|


   C     C   C   G     G   G   Dm    Dm  Dm  G     G
   11            12            13            14
   E E E E E E   E E E E E E   E E E E E E   E E E E E E
e|-------------|-------------|-------------|-------------|
B|-------------|-------------|-------------|-3-0-3-3-0---|
G|-0---0-0---0-|-------------|-2---2-2---2-|-0-----0---0-|
D|---2-----2---|-0---0-0---0-|---3-----3---|-----------5-|
A|-3-----3---3-|---2-----2---|-5-----5---5-|-------------|
E|-------------|-3-----3---3-|-------------|-------------|

Tomorrow when I wake up I'm finding my brother and making him take me back down
to the water


   C     C   C   G     G   G     Am        Am         Am        Am
   15            16              17                   18
   E E E E E E   E E E E E E     E  S S E  E  S S E   E  S S E  E  S S E
e|-------------|-------------| |--------------------|--------------------| |
B|-------------|-------------|o|--------------------|--------------------|o|
G|-0---0-0---0-|-------------| |--------------------|--------------------| |
D|---2-----2---|-0---0-0---0-| |--------------------|--------------------| |
A|-3-----3---3-|---2-----2---|o|-0--3-2-0--0--3-2-0-|-0--3-2-0--0--3-2-0-|o|
E|-------------|-3-----3---3-| |--------------------|--------------------| |

That lake where we sailed and we laughed with our father, I will not desert him,
I will not desert him


     Dm    G       C     Am
     19            20
     E E E E E E   E E E E E E
e| |-------------|-------------| |
B|o|-------------|-------------|o|
G| |-2---2-------|-0---0-------| |
D| |---3---0---0-|---2---2---2-| |
A|o|-5-------2---|-3-------3---|o|
E| |-------3-----|-------5-----| |

No matter how I may wish for a coffin so clean
Or these trees to undress all their leaves onto me


   Dm    G       C     Am          Am        Am         Am        Am      Am    G
   21            22                23                   24                25
   E E E E E E   E E E E  S S E    E  S S E  E  S S E   E  S S E  E E E   E E E E E E
e|-------------|-----------------|--------------------|-----------------|-------------|
B|-------------|-----------------|--------------------|-----------------|-------------|
G|-2---2-------|-0---0-----------|--------------------|-----------------|-------------|
D|---3---0---0-|---2-------------|--------------------|-----------------|-------------|
A|-5-------2---|-3-----0--3-2-0--|-0--3-2-0--0--3-2-0-|-0--3-2-0--0-0-3-|-0-0-3---0-3-|
E|-------3-----|-----------------|--------------------|-----------------|-------3-----|

I put my face in the dirt and then finally I see, the sky that has been avoiding me


   C     C       C     Dm            Am            G
   26            27            28            29
   E E E E E E   E E E E E E   E E E E E E   E E E E E E
e|-------------|-------------|-------------|-------------|
B|-------------|-------0-----|-------------|-------------|
G|-------------|---0-2---2-0-|-------2-0---|-------------|
D|-----0---0-2-|-3-----0-----|-3-2-0-----3-|-2-0---0-2-3-|
A|---2---3-----|-3-----------|-------0-----|-----3-------|
E|-3-----------|-------------|-------------|-------3-----|


         C             Dm            G             G
   30            31            32            33            34
   E E E E E E   E E E E E E   E E E E E E   E E E E E E   Q.   Q.
e|-------------|-------------|-------------|-------------|------------|
B|-------------|-------0-----|-------------|-------------|------------|
G|-------------|---0-2---2-0-|-------0-----|-0-----------|------------|
D|-2-0-----0-2-|-3-----0-----|-3-2-0---3-2-|---3-2-0-2-3-|-2----0-----|
A|-----3-3-----|-------------|-------------|-------------|------------|
E|-------------|-------------|-------3-----|-------3-----|------------|


     C     C   C   G     G   G   Dm    Dm  Dm  Dm    G
     35            36            37            38
     E E E E E E   E E E E E E   E E E E E E   E E E E E E
e| |-------------|-------------|-------------|-------------| |
B|o|-------------|-------------|-------------|-------------|o|
G| |-0---0-0---0-|-------------|-2---2-2---2-|-2---2-------| |  (Repeat 3x)
D| |---2-----2---|-0---0-0---0-|---3-----3---|---3---0---0-| |
A|o|-3-----3---3-|---2-----2---|-5-----5---5-|-5-------2---|o|
E| |-------------|-3-----3---3-|-------------|-------3---3-| |

I started this letter, I'm gonna send it to Ruba, it will be blessed by her eyes on the
coast of Florida
With her feet in the sand and one hand on her swimsuit, she will recite the prayer of my pen
Saying, time take us forward, relief from this longing, they can land that plane on my
I don't care


   C     C   C   G     G   G     Am        Am         Am        Am
   39            40              41                   42
   E E E E E E   E E E E E E     E  S S E  E  S S E   E  S S E  E  S S E
e|-------------|-------------| |--------------------|--------------------| |
B|-------------|-------------|o|--------------------|--------------------|o|
G|-0---0-0---0-|-------------| |--------------------|--------------------| |
D|---2-----2---|-0---0-0---0-| |--------------------|--------------------| |
A|-3-----3---3-|---2-----2---|o|-0--3-2-0--0--3-2-0-|-0--3-2-0--0--3-2-0-|o|
E|-------------|-3-----3---3-| |--------------------|--------------------| |

Just give me November, the warmth of a whisper in the freezing darkness of my room


   Dm    G       C     Am
   43            44
   E E E E E E   E E E E E E
e| |-------------|-------------| |
B|o|-------------|-------------|o|
G| |-2---2-------|-0---0-------| |
D| |---3---0---0-|---2---2---2-| |
A|o|-5-------2---|-3-------3---|o|
E| |-------3-----|-------5-----| |

But no matter what I would do in an attempt to replace
All these pills that I take trying to balance my brain


   Dm    G       C     Am          Am        Am         Am        Am
   45            46                47                   48
   E E E E E E   E E E E  S S E    E  S S E  E  S S E   E  S S E  E E E
e|-------------|-----------------|--------------------|-----------------|
B|-------------|-----------------|--------------------|-----------------|
G|-2---2-------|-0---0-----------|--------------------|-----------------|
D|---3---0---0-|---2-------------|--------------------|-----------------|
A|-5-------2---|-3-----0--3-2-0--|-0--3-2-0--0--3-2-0-|-0--3-2-0--0-0-3-|
E|-------3-----|-----------------|--------------------|-----------------|

Seen the curious girl with that look on her face


         G             C             Dm            Am            G
   49            50            51            52            53
   E E E E E E   E E E E E E   E E E E E E   E E E E E E   E E E E E E
e|-------------|-------------|-------------|-------------|-------------|
B|-------------|-------------|-------0-----|-------------|-------------|
G|-------------|-------------|---0-2---2-0-|-------2-0---|-------------|
D|-------------|-----0---0-2-|-3-----0-----|-3-2-0-----3-|-2-0---0-2-3-|
A|-0-0-3---0-3-|---2---3-----|-3-----------|-------0-----|-----3-------|
E|-------3-----|-3-----------|-------------|-------------|-------3-----|

So surprised she stares out from her display case.


         C             Dm            G             G
   54            55            56            57            58
   E E E E E E   E E E E E E   E E E E E E   E E E E E E   Q.   Q.
e|-------------|-------------|-------------|-------------|------------|
B|-------------|-------0-----|-------------|-------------|------------|
G|-------------|---0-2---2-0-|-------0-----|-0-----------|------------|
D|-2-0-----0-2-|-3-----0-----|-3-2-0---3-2-|---3-2-0-2-3-|-2----0-----|
A|-----3-3-----|-------------|-------------|-------------|------------|
E|-------------|-------------|-------3-----|-------3-----|------------|


   C
   59
   H.
e|------------|]|
B|------------|]|
G|------------|]|
D|------------|]|
A|-3----------|]|
E|------------|]|

(....The End....)

======LEGEND======


Duration Legend
---------------
W - whole
H - half
Q - quarter
E - 8th
S - 16th
T - 32nd
X - 64th
. - note dotted
|-n-|  - n-tuplets

| |---------------|---- |
|o|---------------|o--- |
| |-------------------- | | | means to repeat whatever
| |-------------------- | | | is inside of the |o|s twice
|o|-------------------- | |o| unless otherwise noted
| |---------------|---- |

The letter and/or symbol above the tab is the length notation
The number above the length notation is the measure number
The letter above the measure number is chord that can be played along with the tab
The lyrics are underneath
Tap to rate this tab
# A B C D E F G H I J K L M N O P Q R S T U V W X Y Z