Guitaretab - guitar tabs
Song name
# A B C D E F G H I J K L M N O P Q R S T U V W X Y Z

Bright Eyes - I Saw You Taking Off tab

this the basic tab of "I Saw You Taking Off" - Bright Eyes

e--------------------------------------------------|
B--------------------------------------------------|
G--------------------------------------------------|
D--4-4-4-4-4-4-4-4-6-6-6-6-6-6-6-6-2-2-2-2-2-2-2-2-|
A--4-4-4-4-4-4-4-4-6-6-6-6-6-6-6-6-2-2-2-2-2-2-2-2-|
E--2-2-2-2-2-2-2-2-4-4-4-4-4-4-4-4-0-0-0-0-0-0-0-0-|

Conor also uses a little filler on it that alternates
[ Tab from: http://www.guitaretab.com/b/bright-eyes/74409.html ]
e------------------------------------------------------------------|
B------------------------------------------------------------------|
G--------------------------------------------------6-6-6-6-7-7-7-7-|
D--4-4-4-4-4-4-4-4-6-6-6-6-6-6-6-6-2-2-2-2-2-2-2-2-6-6-6-6-7-7-7-7-|
A--4-4-4-4-4-4-4-4-6-6-6-6-6-6-6-6-2-2-2-2-2-2-2-2-4-4-4-4-5-5-5-5-|
E--2-2-2-2-2-2-2-2-4-4-4-4-4-4-4-4-0-0-0-0-0-0-0-0-----------------|


thats how the first & basic part of the song goes

this is the Chorus of the song

e--------------|
B--------------|
G--------------|    x4
D--6-6-6-6-----|
A--6-6-6-6-----|
E--4-4-4-4-----|

e--------------|
B--------------|
G--------------|    x4
D--4-4-4-4-----|
A--4-4-4-4-----|
E--2-2-2-2-----|

e--------------|
B--------------|
G--------------|    x4
D--2-2-2-2-----|
A--2-2-2-2-----|
E--0-0-0-0-----|


thats basically how the song goes
Related for I Saw You Taking Off tab
Advertisement will be closed in 10 seconds