Song name
# A B C D E F G H I J K L M N O P Q R S T U V W X Y Z

Bright Eyes - Difference In Shades tab

A Dmaj7 * Bm E

* --5--4-2-|
  -0--0--3-|
  -------4-|
  ---------|
  ---------|

A Dmaj7 Bm E x3

A C#m Bm E X2


---------|---------|---------|---------|---------|
-----2---|-----3---|---------|-----2---|-----1---|
---2---2-|---4---4-|-----4---|---0---0-|---1---1-|
-0-------|-4-------|---3---3-|-1-------|-1-------|
---------|---------|-4-------|---------|---------|
---------|---------|---------|---------|---------|

(the first three parts have to be repeated once)


Dmaj7 A C#m Bm-E

A C#m Bm E X2

A Bm E A x2

Bm E x4

Dmaj7 Bm E E (I believe this is wrong, actually)

A C#m Bm E X2

Dmaj7 Bm E E

A A
Tap to rate this tab
# A B C D E F G H I J K L M N O P Q R S T U V W X Y Z