Song name
# A B C D E F G H I J K L M N O P Q R S T U V W X Y Z

Bright Eyes - Tourist Trap tab

|  / = slide    |
|  h= hammer    |
|  P = pull off |
|_______________|

intro

e-2--0---2-0---------------0-00-0-------|
B-2---2-2---2--0-2-0h2-2--2--------2----|
G-2----------------------------------2--|
D---------------------------------------|
A---------------------------------------|

E---------------------------------------

e--2-0---2-0---7-99--7-4-4-2-0h2-2-0----|
B-2---2-2---2-----------------------22--|
G-------------------------------------2-|
D---------------------------------------|
A---------------------------------------|
E---------------------------------------|


~~~~~~~~~~~~~~~~~~~~~~~~~~~~~~~~~~~~~~~~~~~~~~~~~~~~~~~~~~~~~~


  A
It's not the road we used to know,
     F#m
they tore some buildings down.
     E                            A
The traffic's like a pack of dogs.
  A
There's fewer trees, windows, fleas,
  F#m
concrete on the lawn.
          E                          A
There's people here, but you are gone.

       Bm                             E (or u can do F#m)
And I'm fine, still swimming through time.
 E                                   A
Afraid some days I've reached the shore.
             Bm                          E (or u can do F#m)
Make yourself free, a man said that to me.
 E                              A
Now my heart is like an open door.
             Bm                 E

And the road finally gave me back
 E                   A        F#m
but I don't think I'll unpack
       Bm                 E            A
'Cause I'm not sure if I live here anymore.

~~~~~~~~~~~~~~~~~~~~~~~~~~~~~~~~~~~~~~~~~~~~~~~~~~~~~~~~~~~~~~

(Harmonica solo that im not going to figure out)

~~~~~~~~~~~~~~~~~~~~~~~~~~~~~~~~~~~~~~~~~~~~~~~~~~~~~~~~~~~~~~

(Dead stumming through out this part of the verse(place your hand lightly over the 
not pushing down hard enough to get a note though))

It's not my weight that makes me faint.
for the sugar in my blood.
But the way these strangers stand so close.

~~~~~~~~~~~~~~~~~~~~~~~~~~~~~~~~~~~~~~~~~~~~~~~~~~~~~~~~~~~~~~

(play the chords very faintly for this part)
      A
They say my name, like a guessing game.
    F#m
"Is that really you?"
 E                           A
No, I don't think it ever was.

~~~~~~~~~~~~~~~~~~~~~~~~~~~~~~~~~~~~~~~~~~~~~~~~~~~~~~~~~~~~~~

   Bm                                  E (or u can do F#m)
In the spring, when the world's turning green,
  E                      A
I only think about the fall,
 Bm                                            E (or u can do F#m)
or the frets on the board my progression of chords.
 E                        A
Oh how I want this to resolve.

  Bm                           E
And the road finally gave me back,
  A                       F#m
but I don't think I'll unpack.
       Bm                 E            A
'Cause I'm not sure if I live here anymore.

~~~~~~~~~~~~~~~~~~~~~~~~~~~~~~~~~~~~~~~~~~~~~~~~~~~~~~~~~~~~~~
Solo

e---------------------------5---9-5-5555-6666-------|
B-2-2/3-3-3-3/2-22--------/5--/9--------------------|
G-----------------4--1-2-1--------------------------|
D---------------------------------------------------|
A---------------------------------------------------|
E---------------------------------------------------|


~~~~~~~~~~~~~~~~~~~~~~~~~~~~~~~~~~~~~~~~~~~~~~~~~~~~~~~~~~~~~~
               Bm               E
Now the road finally gave me back,
 A                        F#m
but I don't think I'll unpack.
  Bm                           E
'Cause I'm not sure If I live here,
          Bm                E            A
no, I'm not sure if I live here anymore.
 Bm                      E
I'm not sure if I live here
  A
anymore
Tap to rate this tab
# A B C D E F G H I J K L M N O P Q R S T U V W X Y Z