Song name
# A B C D E F G H I J K L M N O P Q R S T U V W X Y Z

Bright Eyes - We Are Nowhere And Its Now tab

Help us improve GuitareTab! Take a short survey!
Artist: Bright Eyes
Song: We Are Nowhere And It's Now
Album: I'm Wide Awake It's Morning

- I saw a live video of Conor playing this song with Mike Mogis and this is how he 
it.

Intro/Verse:

  (This is Mike Mogis on the mandolin, but it also sounds good
   12-string guitar. He plays variations of it throughout the song.)
e -9-10h9-10/12-----12-10-9-9/7----------12---------12------|
b ------------------------------10----------10----10--------|
g ---------------------------------------------11------11-9-|
d ---------------------------------11/12--------------------|
a ----------------------------------------------------------|
E ----------------------------------------------------------|

  (This is the acoustic guitar)

e -------------------------------------------------|
b ---2-2---2-2---2-2---0-0---2-2---2-2---2-2---0-0-|
g ---2-2---2-2---2-2---1-1---2-2---2-2---2-2---1-1-|
d -------------------------------------------------|
a -0-----4-----------------0-----4-----------------|
E -------------2-----0-----------------2-----0-----|

e ---------------------------------------2-2-------|
b ---2-2---2-2---2-2---0-0---2-2---2-2---3-3--0-0--|
g ---2-2---2-2---2-2---1-1---2-2---2-2--------1-1--|
d -------------------------------------0-----------|
a -0-----4-----------------0-----4-----------------|
E -------------2-----0-----------------------0-----|

Pre-Chorus:

e -------------------------|
b ---2-2---2-2---0-0---0-0-|
g ---2-2---2-2---1-1---1-1-|
d -------------------------|
a -------------------------|
E -2-----2-----0-----0-----|

Chorus: (I think that he strums this part on the album)

e ---2-2---2-2---------------0-----0-----2-----------------------0-|
b ---3-3---3-3---0-0---0-0---2-2-2-0-0-0-2-2-2---2-2---2-2---2-2-0-|
g ---------------1-1---1-1---2-2-2-1-1-1-2-2-2---2-2---2-2---2-2-1-|
d -0-----0-------------------2-----2-----4-----4-----4-----4-----2-|
a ---------------------------0-----2-----4-----4-----4-----4-----2-|
E -------------0-----0-------------0-----------------------------0-|

Bridge:

e -------------------------------------------------0---0---0---0---|
b ---2-2---2-2---2-2---2-2---2-2---2-2---2-2---2-2-0---0---0---0---|
g ---2-2---2-2---2-2---2-2---2-2---2-2---2-2---2-2-1---1---1---1---|
d -------------------------------------------------222-222-222-222-|
a -0-----4-----0-----4-----0-----4-----0-----4-----222-222-222-222-|
E -------------------------------------------------000-000-000-000-|

Interlude: (I think that he strums this part on the album)

e --2-2---2-2-------------|
b --3-3---3-3---0-0---0-0-|
g --------------1-1---1-1-|
d ------------------------|
a -2-----2----------------|
E -------------0-----0----|

Outro:

e -------------------------------|
b ---2-2---2-2---2-2-------------|
g ---2-2---2-2---2-2-------------|
d -------------------------------|
a -0-----4-----0-----4-42-0h2p0--|
E -------------------------------|

End On:

e -0-
b -2-
g -2-
d -2-
a -0-
E ---
Related for We Are Nowhere And Its Now tab