Song name
# A B C D E F G H I J K L M N O P Q R S T U V W X Y Z

Bright Eyes - No One Would Riot For Less tab

Bright Eyes
No One Would Riot for Less

Picking pattern. This is literally how it’s picked. DO IT…

Intro and verses are the same in chords and length of play.

Verse 1...
  Death my come invisible…
E--------2----------------2----------------2----------------2----------|
B----3-----3----------3-----3----------3-----3----------3-----3--------|
G------4-----4----------4-----4----------4-----4----------4-----4------|
D----------------------------------------------------------------------|
A--2----------------2----------------2----------------2----------------|
E----------------------------------------------------------------------|
  Bm

Or in a Holy wall of fire…
E--------2----------------2----------------2----------------2----------|
B----3-----3----------3-----3----------3-----3----------3-----3--------|
G------4-----4----------4-----4----------4-----4----------4-----4------|
D----------------------------------------------------------------------|
A--0----------------0----------------0----------------0----------------|
E----------------------------------------------------------------------|
  Bm/A

In the breath between the markers…
E--------5----------------5----------------5----------------5----------|
B----------5----------------5----------------5----------------5--------|
G----6-------6--------6-------6--------6-------6--------6-------6------|
D------7----------------7----------------7----------------7------------|
A--0----------------0----------------0----------------0----------------|
E----------------------------------------------------------------------|
   A

On some black I-80 mile…
E--------2----------------2----------------2----------------2----------|
B----3-----3----------3-----3----------3-----3----------3-----3--------|
G------4-----4----------4-----4----------4-----4----------4-----4------|
D----------------------------------------------------------------------|
A--2----------------2----------------2----------------2----------------|
E----------------------------------------------------------------------|
  Bm

Chorus:
So love me now…
E--------5----------------5----------------5----------------5----------|
B----------5----------------5----------------5----------------5--------|
G----6-------6--------6-------6--------6-------6--------6-------6------|
D------7----------------7----------------7----------------7------------|
A--0----------------0----------------0----------------0----------------|
E----------------------------------------------------------------------|
   A

Hell is coming…
E--------2----------------2----------------2----------------2----------|
B----3-----3----------3-----3----------3-----3----------3-----3--------|
G------4-----4----------4-----4----------4-----4----------4-----4------|
D----------------------------------------------------------------------|
A--2----------------2----------------2----------------2----------------|
E----------------------------------------------------------------------|
  Bm

Yeah kiss my mouth…
E--------5----------------5----------------5----------------5----------|
B----------5----------------5----------------5----------------5--------|
G----6-------6--------6-------6--------6-------6--------6-------6------|
D------7----------------7----------------7----------------7------------|
A--0----------------0----------------0----------------0----------------|
E----------------------------------------------------------------------|
   A

Hell is here…
E--------2----------------2----------------2----------------2----------|
B----3-----3----------3-----3----------3-----3----------3-----3--------|
G------4-----4----------4-----4----------4-----4----------4-----4------|
D----------------------------------------------------------------------|
A--2----------------2----------------2----------------2----------------|
E----------------------------------------------------------------------|
  Bm

Verse 2 & 3
Chorus

Bridge thing…

See the sterile soil, poisoned sky…
E-------2-----------------2----------------2----------------2----------|
B----3----3-----------3-----3----------3-----3----------3-----3--------|
G------2----2-----------2-----2----------2-----2----------2-----2------|
D--0----------------0----------------0----------------0----------------|
A----------------------------------------------------------------------|
E----------------------------------------------------------------------|
   D
Yellow water, final scraps of light…
E--------5----------------5----------------5----------------5----------|
B----------5----------------5----------------5----------------5--------|
G----6-------6--------6-------6--------6-------6--------6-------6------|
D------7----------------7----------------7----------------7------------|
A--0----------------0----------------0----------------0----------------|
E----------------------------------------------------------------------|
   A…or you could do a regular A chord picking pattern, relative to the D   picking above.

E-------3-----------------3------|
B---------0-----------------0----|
G---0-------0---------0-------0--|
D-----0-----------------0--------|
A--------------------------------|
E--3----------------3------------|
   G

Bringing new tears…
E--------2--------------
B----3-----3------------
G------4-----4----------
D-----------------------
A--2----------------0---
E-----------------------
  Bm			  A

Instrumental piece: Em   G   A   Bm A
		    Em	 G   A   Bm A

Other bridge thing:

D	     Bm
Wake, baby wake…

		   G
But leave that blanket around you, there’s no where as safe

    D		     Bm			G		          A
I’m leaving this place, but there’s nothing I’m planning to take

Just you…				Just you…
E--------2----------------2----------------2----------------2----------|
B----3-----3----------3-----3----------3-----3----------3-----3--------|
G------4-----4----------4-----4----------4-----4----------4-----4------|
D----------------------------------------------------------------------|
A--2----------------2----------------0----------------0----------------|
E----------------------------------------------------------------------|
  Bm						 Bm/A

Just you…
E----------------------------------------------------------------------|
B--------3----------------3----------------2----------------2----------|
G----4-----4----------4-----4----------3-----3----------3-----3--------|
D------5-----5----------5-----5----------4-----4----------4-----4------|
A----------------------------------------------------------------------|
E--3----------------3----------------2----------------2----------------|
   G						 F#


E--------2----------------2----------------2----------------2----------|
B----3-----3----------3-----3----------3-----3----------3-----3--------|
G------4-----4----------4-----4----------4-----4----------4-----4------|
D----------------------------------------------------------------------|
A--2----------------2----------------0----------------0----------------|
E----------------------------------------------------------------------|
  Bm						 Bm/A

E----------------------------------------------------------------------|
B--------3----------------3----------------2----------------2----------|
G----4-----4----------4-----4----------3-----3----------3-----3--------|
D------5-----5----------5-----5----------4-----4----------4-----4------|
A----------------------------------------------------------------------|
E--3----------------3----------------2----------------2----------------|
   G						 F#

Final strum on Bm

Lyrics:

Verse 1:
Death may come invisible
Or in a Holy wall of fire
In the breath between the markers
On some black I-80 mile

Verse 2:
From the madness of the government
To the vengeance of the sea
Everything is eclipsed
By the shape of destiny

Chorus:
So love me now
Hell is coming
Yeah kiss my mouth
Hell is here

Verse 3:
Little soldier, little insect
You know war it has no heart
It’ll kill you in the sunshine
Or happily in the dark

Verse 4:
Where kindness is a card game
Or a bent up cigarette
In the trenches, in the hard rain
With a bullet and a bet

Chorus:
He says “Help me out,
Hell is coming.
Could you do it now?
Hell is here”

Bridge thing:
See the sterile soil, poisoned sky
Yellow water, final scraps of light
Bringing new tears…

Other Bridge thing:
Wake, baby wake
But leave that blanket around you
There’s no where as safe
I’m leaving this place
But there’s nothing I’m planning to take
Just you, just you, just you…
Tap to rate this tab
 
# A B C D E F G H I J K L M N O P Q R S T U V W X Y Z