Song name
# A B C D E F G H I J K L M N O P Q R S T U V W X Y Z

Bright Eyes - I Watched You Take Off tab

-------------------------------------------------------------------------------
			     I Watched You Take Off - Bright Eyes
-------------------------------------------------------------------------------
Tabbed by: Erik Hanna
Email: Erik_Hanna@hotmail.com

I was only able to tab up to 1 minute and 25 seconds into the song because I've only
playing guitar for about a week. If someone could email me the rest of the song it would be
appreciated! Also email me for corrections, though I'm pretty sure this is almost exact 
to that point. Appreciated! :)

Tuning: Standard

\ = Slide to

E    2-2-2-2-2-2-2-254-4-4-4-4-4-420-0-0-0-0-0-0-0-----------------|
A    ----------------------------------------------4-4-4-5-5-5-4-0-|
D    --------------------------------------------------------------|
G    --------------------------------------------------------------|
B    --------------------------------------------------------------|
e    --------------------------------------------------------------|

E    2-2-2-2-2-2-2-254-4-4-4-4-4-420-0-0-0-0-0-0-0-----------------|
A    ----------------------------------------------4-4-4-5-5-5-4-0-|
D    --------------------------------------------------------------|
G    --------------------------------------------------------------|
B    --------------------------------------------------------------|
e    --------------------------------------------------------------|

E    2-2-2-2-2-2-2-2-4-4-4-4-4-4-4-0-0-0-0-0-0-0-0-----------------|
A    ----------------------------------------------4-4-4-5-5-5-4-0-|
D    --------------------------------------------------------------|
G    --------------------------------------------------------------|
B    --------------------------------------------------------------|
e    --------------------------------------------------------------|

E    2-2-2-2-2-2-2-2-4-4-4-4-4-4-420-0-0-0-0-0-0-0-----------------|
A    ----------------------------------------------4-4-4-5-5-5-4-0-|
D    --------------------------------------------------------------|
G    --------------------------------------------------------------|
B    --------------------------------------------------------------|
e    --------------------------------------------------------------|

E    2-2-2-2-2-2-2-254-4-4-4-4-4-420-0-0-0-0-0-0-0-0-0-0-0-0-0-0-5\2-|
A    ----------------------------------------------------------------|
D    ----------------------------------------------------------------|
G    ----------------------------------------------------------------|
B    ----------------------------------------------------------------|
e    ----------------------------------------------------------------|

E    2-2-2-2-2-2-2-254-4-4-4-4-4-420-0-0-0-0-0-0-0-----------------|
A    ----------------------------------------------4-4-4-5-5-5-4-0-|
D    --------------------------------------------------------------|
G    --------------------------------------------------------------|
B    --------------------------------------------------------------|
e    --------------------------------------------------------------|

E    2-2-2-2-2-2-2-254-4-4-4-4-4-420-0-0-0-0-0-0-0---0-------------|
A    ----------------------------------------------4-4-4-5-5-5-4-0-|
D    --------------------------------------------------------------|
G    --------------------------------------------------------------|
B    --------------------------------------------------------------|
e    --------------------------------------------------------------|

E	2-2-2-2-2-2-2-2-4-4-4-4-4-4-4-0-0-0-0-0-0-0-0-0-0-0-0-0-0-0-0-0-0-0-0-0-0-|
A	------------------------------------------------------------4-4-4-5-5-5-4-|
D	--------------------------------------------------------------------------|
G	--------------------------------------------------------------------------|
B	--------------------------------------------------------------------------|
e	--------------------------------------------------------------------------|

E    2-2-2-2-2-2-2-2-4-4-4-4-4-4-420-0-0-0-0-0-0-0-0-0-0-0h----0-0-|
A    ------------------------------------------------4-4-4-5-5-5-4-|
D    --------------------------------------------------------------|
G    --------------------------------------------------------------|
B    --------------------------------------------------------------|
e    --------------------------------------------------------------|

E	2-2-2-2-2-2-2-2-4-4-4-4-4-4-420-0-0-0-0-0-0-0-0-0-0-0-0-0-0-0-|
A	--------------------------------------------------------------|
D	--------------------------------------------------------------|
G	--------------------------------------------------------------|
B	--------------------------------------------------------------|
e	--------------------------------------------------------------|
Tap to rate this tab
# A B C D E F G H I J K L M N O P Q R S T U V W X Y Z