Song name
# A B C D E F G H I J K L M N O P Q R S T U V W X Y Z

Bright Eyes - Make A Plan To Love Me tab

Bright Eyes
Cassadaga
Make a Plan to love Me


capo on the second fret

e-------------------------2---------------------------2--------|
b-----------------------3---3-----------------------3---3------|
g---------5-----------2-------2--------5----------2-------2----|
d-------7---7-------0----------------7---7------0--------------|
a-----7-------7--------------------7-------7-------------------|
E---5----------------------------5-----------------------------|

e--------------------------------------------------------------|
b--------------------------------------------------------------|
g---------4----------------------------------------------------|
d-------5---5--------------7-------------9---------------------|
a-----5-------5----------7-------------9-----------------------|
E---3------------------5-------------7-------------------------|


ok from here i play and alternate from

e-----------------------2----------|
b---------------------3---3--------|
g--------4----------2-------2------|
d------5---5------0----------------|  x2
a----5-------5---------------------|
E--3-------------------------------|
and
e-----------------------2----------|
b---------------------3---3--------|
g--------5----------2-------2------|
d------7---7------0----------------|  x2
a----7-------7---------------------|
E--5-------------------------------|

Thats all pretty much all i got, hope u lkke it! thx ~ Sean Hough
Tap to rate this tab
# A B C D E F G H I J K L M N O P Q R S T U V W X Y Z