Guitaretab - guitar tabs
Song name
# A B C D E F G H I J K L M N O P Q R S T U V W X Y Z

Bright Eyes - Soul Singer In The Session Band tab

Capo 1st fret

Am2 x00010
F x03210


Intro: Play it a lot more smoothly then i wrote it out it's actually a piano part.

|------------------------------------------------------|
|------------------------------------------------------|
|-0--------------------------0-------------------------|
|----3-2-3-2-2-3-2-0------------3-2-3-2-2-3-2-0-0------|
|-----------------------3------------------------------|
|------------------------------------------------------|

[ Tab from: http://www.guitaretab.com/b/bright-eyes/87858.html ]
|--------------------------0----------------------|
|--------------------------1----------------------|
|-0------------------------0----------------------|
|---3-2-3-2-2-3-2-0--------2----------------------|
|-----------------------3--3----------------------|
|-------------------------------------------------|
C
F G F Am Am2 C

C
See the soul singer in the session band
C                                          G
Shredded to ribbons beneath the microphone stand
C
Felt the quickness of pity like a flash in a pan
F                   G      F Am Am2 C
For the soul singer in the session band

C
Now a red carpet bagger makes a blackberry call
C                                      G
To the plastic pirhana in the city of salt
C
Wasted wheat paste campaign post no bills on the wall
F                   G                 F Am Am2 C
You mean nothing to no one but that's nobody's fault

The aligning is off but you should get the idea.

ALTERNATE CHORUS

C
See the soul singer
F Am Am2 G
in the session band
C                                        G
shredded confetti beneath a microphone stand
Related for Soul Singer In The Session Band tab
Advertisement will be closed in 10 seconds