Song name
# A B C D E F G H I J K L M N O P Q R S T U V W X Y Z

Brighten - Just Breathe tab

Song: Just Breathe
Band: Brighten
Album: Ready When You Are

OMG there are like NO other tabs on this song! WHAT IS WRONG WITH YOU PPL!?!?!?!?!?
I'll put the rest of this song up here when I learn it. (BTW this is my 1st TAB)

Introduction: (PLAY TWICE)

e|---------------------------------------------------------------------|
B|---------------------------------------------------------------------|
G|---------------------------------------------------------------------|
D|-------0-------0-------0-------0--------0--------0--------0--------0-|
A|---------------------------------------------------------------------|
E|---7-------7-------7-------9-------10-------10-------10-------10-----|

e|---------------------------------------------------------------------|
B|---------------------------------------------------------------------|
G|---------------------------------------------------------------------|
D|-------0-------0-------0-------0-------0-------0-------0-------0-----|
A|---------------------------------------------------------------------|
E|---3-------3-------3-------3-------3--------3------3-------3---------|
Tap to rate this tab
 
# A B C D E F G H I J K L M N O P Q R S T U V W X Y Z