Song name
# A B C D E F G H I J K L M N O P Q R S T U V W X Y Z

Brighten - The Better Way tab

this tab is meant more to play on an acoustic or by yourself so i mashed the
chords with the melody and just used chords for the verse.

Intro
-------------------------   --------|
-------------------------   --------|
-888-5-888-5-88810-------   --------|
-666-6-666-6-6666-10s888-   --3---1-|
-444-4-444-4-6666-6---66-   --3---1-|
-------------6666-6---66-x3 --3---1-|

Verse

------------|
------------|
-6----------|
-6-6----3-1-|
-4-6-x3-3-1-|
---6----3-1-|

Prechorus

-----------------------------------------------------|
-----------------------------------------------------|
-----8----8----8----8-----8----8----5----5----5----5-|
---6----6----6----6-----6----6----6----6----6----6---|
-8----8----6----6-----8----8----4----4----6----6-----|
-----------------------------------------------------|

Chorus

--------|
--------|
----6---|
3-1-6-6-|
3-1-4-6-|
3-1---6-|

Bridge

----------------    ---------------|
----------------    ---------------|
----------------    ---------------|
-33-6-1-xxxxxxxx    333-555-666s1--|
-33-6-1-xxxxxxxx x2 333-555-666s1--| x1
-33-6-1-xxxxxxxx    333-555-666s1--|

----------------    --------------------     ------|
----------------    --------------------     ------|
----------------    ------------888-5555     ------|
-33-6-1-xxxxxxxx    333-555-666-888-5555     3~-1~-|
-33-6-1-xxxxxxxx x2 333-555-666-666-3333 x2  3~-1~-|
-33-6-1-xxxxxxxx    333-555-666---------     3~-1~-|

Ending

--------------------|
--------------------|
------------888-5s--|
333-555-666-888-5s--|
333-555-666-666-3s--|
333-555-666---------|

Just put it all in order. Good song, i hope this band gets some attention i think they deserve it.
Tap to rate this tab
# A B C D E F G H I J K L M N O P Q R S T U V W X Y Z