Song name
# A B C D E F G H I J K L M N O P Q R S T U V W X Y Z

Brighten - Television tab

---------------------------------------------------------------------------|
---------------------------------------------------------------------------|
---------------------------------------------------------------------------|
---------------------------------------------------------------------------|
--------------5-4-2-0------------------------------------------------------|
-7777777-5555---------33333333-00000000------------------------------------|

---------------------------------------------------------------------------|
---------------------------------------------------------------------------|
---------------------------------------------------------------------------|
---------------------------------------------------------------------------|
--------------5-4-2-0------------------------------------------------------|
-7777777-5555---------33333333-00000000-3333333-5--------------------------|

---------------------------------------------------------------------------|
---------------------------------------------------------------------------|
---------------------------------------------------------------------------|
----4-0---4-2-0------------------------------------------------------------|
-2-2---------------5-5---5---7---------------------------------------------|
--------5-------3-3----3---5-----------------------------------------------| repeat x4

---------------------------------------------------------------------------|
---------------------------------------------------------------------------|
---------------------------------------------------------------------------|
---------------------------------------------------------------------------|
--555555---55--7777777-----------------------------------------------------|
--333333---77--5555555-----------------------------------------------------|

then there's a drum solo but you could also play all of your strings silently to the 
the drum is supposed to hitting.
all in all, this tab should be really easy.(:

much love,
Colleen<3
Tap to rate this tab
# A B C D E F G H I J K L M N O P Q R S T U V W X Y Z