Song name
# A B C D E F G H I J K L M N O P Q R S T U V W X Y Z

Brighten - We Are Birds tab

Artist: Brighten
Song: We Are Birds


I looked at some of the other tabs and videos and decided to make this one. Hope its good.


Standard
Capo on 1st

e-----3-------3----2-----7~-0-----------------------|
b-----3---3----------(0)----0---0----3-3----3---3---|
g-------0---0---0-------------0---0-----------0---0-|
d-----2------------0----------------------0---------|
a---------------------------3-----------------------|
e--------------------------------------3------------|
the whole song


this part is played a few times and when he says "use her as light"
e-----3-------3----2-----7~-10-8-7------------0---------0---|
b-----3---3----------(0)-----------8-8---8-------8---8------|
g-------0---0---0----------------------0---(0)-----0--------|
d-----2------------0----------------------------------------|
a-----------------------------------------------------------|
e------------------------------------8-----------8----------|


if i missed anything please let me know ill try to fix whatever it is.

post comments would love feedback.
hope you all like it :)
Tap to rate this tab
# A B C D E F G H I J K L M N O P Q R S T U V W X Y Z