Brighten - Easy To Fall In Love tab

capo on the 2nd fret - This may be wrong, but it sounds good to me.

|-------------------------------------|
|--------5-3-0-3-1-0---0--------------|
|--0-0-0-------------2----------------|
|------------------------2-0----------|
|-------------------------------------|
|-------------------------------------|


|-------------------------------------|
|--------5-3-0-3-1-0---0-0------------|
|--0-0-0-------------2-----2-0--------|
|-------------------------------------|
|-------------------------------------|
|-------------------------------------|
Tap to rate this tab
 
# A B C D E F G H I J K L M N O P Q R S T U V W X Y Z