Song name
# A B C D E F G H I J K L M N O P Q R S T U V W X Y Z

Brighten - Ill Always Be Around tab

Tabbed by: Josh Kaplan
Email: joshuakaplan27@gmail.com
Website: http://www.youtube.com/user/astorywelltold

Tuning: Standard EADGBE CAPO ON 2 (All Notes Relevant to Capo)

INTRO:

e|---------------0---------------0---------------------------------------------|
B|------------- 0------------------0-------------------------------------------|
G|---2p1----1p2-----2p4-----4p2-------2p1--------------------------------------|
D|-----------------------------------------------------------------------------|
A|-----------------------------------------------------------------------------|
E|-----------------------------------------------------------------------------|


e|---------0-------------------0-------------------------------------------------|
B|-----0--------0----------0-------0---------------------------------------------|
G|--2---2---2----2------2---2---2---2-----------4--------------------------------|
D|---2---2---2----2------2---2---2---2--------2----------------------------------|
A|-0------------------0--------------------0/2-----------------------------------|
E|-------------------------------------------------------------------------------|

e|-------------0----------------------0--------------------------------------------|
B|---------0---------0----------0------------0-------------------------------------|
G|----------1----1----1--------1--1------1-----1-----------------------------------|
D|-----2------2----2---2-----2------2------2-----2---------------------------------|
A|-2/4----------------------4------------------------------------------------------|
E|---------------------------------------------------------------------------------|

REPEAT UNTIL "Don't' know why I do the things I do, because I'll always be around". At 
that part, you play:

e|-----------------------------------------------0----------------------------------|
B|-----0------------------------------------0----------0----------------------------|
G|---2-----------4--------2-------1------1--1-----1----1----------------------------|
D|--2----------6--------4-------2------2------2-----2----2--------------------------|
A|-0---------7--------4-------2-------4---------------------------------------------|
E|---------4---------2-------0------------------------------------------------------|

That's the whole song. If you want to play with just chords:

                    A                                      C#m
Watch as the moonlight creeps into the room
            A                                       C#m
I think I just might want to be with you too
           A
As I'm dancing down the halls like glitter on the walls
           C#m
I cannot wait for you
                                               A
'Cause I don't want to sleep at all
                                   C#m
But you'll try to sleep it off
                  A            B     C#m
And darling I, I can't slow down
                           A   A7  F#m   E C#m
Don't know why I do the things I do
                           A
But I'll always be around
, etc.
It's all the same from there, enjoy!

LYRICS:

Watch as the moonlight creeps into the room
I think I just might want to be with you too
As I'm dancing down the halls like glitter on the walls
I cannot wait for you

'Cause I don't want to sleep at all
But you'll try to sleep it off

And darling I, I can't slow down
Don't know why I do the things I do
But I'll always be around

You'll dream of me, love, walking on your roof
Climb through the window, live up on the moon
Where we walk among the stars, and we know what's here is ours
'Cause I made it all for you

I don't want to sleep at all
But for you I'll sleep it off

And darling I, I can't slow down
Don't know why I do the things I do
But I'll always be around

And darling I, I can't slow down
Don't know why I do the things I do
But I'll always be around
But I'll always be around


************************************

| /   slide up
| \   slide down
| h   hammer-on
| p   pull-off
| ~   vibrato
| +   harmonic
| x   Mute note
| b   Bend
| pb  Pre-bend
| br  Bend release
| pbr Pre-bend release
| brb Bend release bend

************************************
Tap to rate this tab
# A B C D E F G H I J K L M N O P Q R S T U V W X Y Z