Song name
# A B C D E F G H I J K L M N O P Q R S T U V W X Y Z

Brighter Brightest - Right For Me tab

-----------------------------------------------------------------------------
                             RIGHT FOR ME - Brighter Brightest
-----------------------------------------------------------------------------
Tabbed by: Jake Dennison
Email: srt4rulez@gmail.com

First tab, mostly likely wrong. 

Tuning: Standard
Capo 2nd Fret

Intro/Verse
Post-Verse
Intro/Verse
Post-Verse
Chorus  
Intro/Verse
Post-Verse
Intro/Verse
Post-Verse
Chorus
Full Band
Full Band Chorus
Last Chorus


Intro/Verse
e|--------------------------------------------------------------------------|
B|-----0---0---0---0---0---0---0---0---0---0---0---0---0---0---0---0--------|
G|--------------------------------------------------------------------------|
D|--------------------------------------------------------------------------|
A|---2---2---2---2---2---2---2---2------------------------------------------|
E|-----------------------------------0---0---0---0---0---0---0---0----------|

e|--------------------------------------------------------------------------|
B|-----0---0---0---0---0---0---0---0----------------------------------------|
G|--------------------------------------------------------------------------|
D|--------------------------------------------------------------------------|
A|---------------------------2---2------------------------------------------|
E|---4---4---4---4---2---2--------------------------------------------------|


Post-Verse (?)
e|--------------------------------------------------------------------------|
B|-----0---2---0---0---0---0---2---0----------------------------------------|
G|--------------------------------------------------------------------------|
D|--------------------------------------------------------------------------|
A|---2---2---2---2---2---2---2---2------------------------------------------|
E|--------------------------------------------------------------------------|

Chorus
e|--------------------------------------------------------------------------|
B|-----0---0---0---0---0---0---0---0---0---0---0---0---0---0---0---0--------|
G|--------------------------------------------------------------------------|
D|--------------------------------------------------------------------------|
A|--------------------------------------------------------------------------|
E|---4---4---2---2---0---0---0---0---4---4---2---2---0---0---0---0----------|

e|--------------------------------------------------------------------------|
B|-----0---0---0---0---0---0---0---0---0---0---0---0------------------------|
G|--------------------------------------------------------------------------|
D|--------------------------------------------------------------------------|
A|---------------------------2---2------------------------------------------|
E|---4---4---2---2---0---0-----------2---2---2---2--------------------------|


Full Band
e|--------------------------------------------------------------------------|
B|--------------------------------------------------------------------------|
G|---4---1------------------------------------------------------------------|
D|---4---2------------------------------------------------------------------|
A|---2---2------------------------------------------------------------------| 
E|-------0------------------------------------------------------------------| x4
listen to song for rhythm

e|--------------------------------------------------------------------------|
B|--------------------------------------------------------------------------|
G|---4---1---------6---------------1*---------------------------------------|
D|---4---2---------6-------6---4---2----------------------------------------|
A|---2---2---------4-------6---4---2----------------------------------------|
E|-------0-----------------4---2---0----------------------------------------|
* I use this when I play it acoustically  

Full Band Chorus
e|--------------------------------------------------------------------------|
B|--------------------------------------------------------------------------|
G|-----------1--------------------------------------------------------------|
D|---6---4---2--------------------------------------------------------------|
A|---6---4---2--------------------------------------------------------------|
E|---4---2---0--------------------------------------------------------------| x2


e|--------------------------------------------------------------------------|
B|--------------------------------------------------------------------------|
G|-----------1---4----------------------------------------------------------|
D|---6---4---2---4---4------------------------------------------------------|
A|---6---4---2---2---4------------------------------------------------------|
E|---4---2---0-------2------------------------------------------------------| x1

Last Chorus
e|--------------------------------------------------------------------------|
B|--------------------------------------------------------------------------|
G|-----------1--------------------------------------------------------------|
D|---6---4---2--------------------------------------------------------------|
A|---6---4---2--------------------------------------------------------------|
E|---4---2---0--------------------------------------------------------------| x2


e|--------------------------------------------------------------------------|
B|--------------------------------------------------------------------------|
G|-----------1---4----------------------------------------------------------|
D|---6---4---2---4----------------------------------------------------------|
A|---6---4---2---2----------------------------------------------------------|
E|---4---2---0--------------------------------------------------------------| x1

e|--------------------------------------------------------------------------|
B|--------------------------------------------------------------------------|
G|-------1------------------------------------------------------------------|
D|---4---2------------------------------------------------------------------|
A|---4---2------------------------------------------------------------------| 
E|---2---0------------------------------------------------------------------| x3 


link to band website: http://brighterbrightest.com/
Tap to rate this tab
# A B C D E F G H I J K L M N O P Q R S T U V W X Y Z