Song name
# A B C D E F G H I J K L M N O P Q R S T U V W X Y Z

Brightwood - Wake Acoustic tab

Help us improve GuitareTab! Take a short survey!
Hi everyone, one of my first tabs here so I hope you all like it. This band is pretty 
and I could see them getting big some time soon. Hope this tab helps some of you guys out 
I plan to tab a few more of their songs soon.

You can find a video of this tab at:
http://www.youtube.com/watch?v=T9zAkPaQwcA

also this is tabbed on my myspace:
www.myspace.com/eatingemokids

Feel free to contact me if you have any problems...

Intro / Verse
E|-----------|
B|--0-0-0-0--|
G|--4-3-4-4--|
D|--4-4-4-4--|
A|--x-x-2-2--|
E|--4-2-0-0--|

pre-verse
E|---------|
B|--0-0-0--|
G|--3-4-4--|
D|--4-4-4--|
A|--2-x-2--|
E|--2-4-0--|

verse
E|-----------|
B|--0-0-0-0--|
G|--4-3-4-4--|
D|--4-4-4-4--|
A|--x-x-2-2--|
E|--4-2-0-0--|

pre-chorus
E|---------|
B|--0-0-0--|
G|--3-4-4--|
D|--4-4-4--|
A|--x-x-2--|
E|--2-4-0--|

chorus           end
E|----------||---------|
B|--0--0-0--||--0-0-0--|
G|--4--3-4--||--4-2-4--|
D|--4--4-4--||--4-2-4--|
A|--2--x-x--||--2-x-2--|
E|--0--2-4--||--0-2-0--|

pre-verse
E|---------|
B|--0-0-0--|
G|--3-4-4--|
D|--4-4-4--|
A|--x-x-2--|
E|--2-4-0--|

verse
E|-----------|
B|--0-0-0-0--|
G|--4-3-4-4--|
D|--4-4-4-4--|
A|--x-x-2-2--|
E|--4-2-0-0--|

pre-chorus 2
E|-------------------|
B|-------------------|
G|------3h4---4------|
D|----4---------4----|
A|-------------------|
E|--2-------4-----0--|

chorus           end
E|----------||---------|
B|--0--0-0--||--0-0-0--|
G|--4--3-4--||--4-2-4--|
D|--4--4-4--||--4-2-4--|
A|--2--x-x--||--2-x-2--|
E|--0--2-4--||--0-2-0--|

bridge
E|------------------------|------------------------|
B|------0----0----0-------|------0----0----0-------|
G|-----3---3----3----3-3--|-----3---3----3----3-3--|
D|----4-----4----4----4---|----4-----4----4----4---|
A|------------------------|------------------------|
E|--0---------------------|--2---------------------|

E|----------------|
B|--0-0-0-0--0-0--|
G|--4-4-4-4--4-4--|
D|--4-4-4-4--4-4--|
A|--x-x-2-2--x-2--|
E|--4-2-0-0--4-0--|

chorus           end
E|----------||---------|
B|--0--0-0--||--0-0-0--|
G|--4--3-4--||--4-2-4--|
D|--4--4-4--||--4-2-4--|
A|--2--x-x--||--2-x-2--|
E|--0--2-4--||--0-2-0--|
Related for Wake Acoustic tab