Guitaretab - guitar tabs
Song name
# A B C D E F G H I J K L M N O P Q R S T U V W X Y Z

Bring Me The Horizon - It Was Written In Blood tab

      

      h - hammer on 
      p - pull off 
      b - bend string up
      r - release bend
      / - slide up
      \ - slide down
      v - vibrato (sometimes written as ~)
      t - right hand tap
      x - play 'note' with heavy damping or deaden following a note

Song: It Was Written In Blood
Band: Bring Me the Horizon
Tuning: Drop C (CGCFAD)

Gtr 1: (0:00)
|---10---8---12---| x alot
|-----------------|
|-----------------|
|-----------------|
|-----------------|
|-----------------|

Gtr 2:
Let ring ~~~~~~~~~~~~~~~~~~~~~~~~~~~~~
|-------------10-------------10-------------------------|-------------|
|-------------10-------------10-------------------------|-------------|
|-------------10-------------10-------------10----------|--12---------|
|-------------12-------------12----------------12-(x10)-|-----14-(x4)-|
|------12-------------12-------------12-----------------|-------------|
|---0------0-------0------0-------0------0--------------|-------------|

|-----------------|---------------------------------|
|-----------------|---------------------------------|
|---10----(x10)---|---10/14-14-14-14b-14b-14b-14b---|
|------12---------|---------------------------------|
|-----------------|---------------------------------|
|-----------------|---------------------------------|

Chorus - Both Gtrs: (0:32)
|------------------------------------------------------------|
|------------------------------------------------------------|
|-----------------------------------------------------------|
|------------------------------------------------------------|
|------------------------------------------------------------|
|---0-12-0-12-12-0-12---0-12-0-12-12-12-12---8-8-8-8-8-8-8---|

|-------------------| x2
|-------------------|
|------------------|
|-------------------|
|-------------------|
|---5-5-5---1-1-1---|

Gtr 1: (0:43)
|--------------------------| x4
|--------------------------|
|-------------------------|
|--------13x--13x--13------|
|--------12x--12x--12------|
|---------0x---0x--0-------|

Gtr 2:
Let ring ~~~~~~~~~~~~~~~~~~~~~~~~~~~~~
|---10-------------10----------10--------------------|
|---10-------------10----------10--------------------|
|---10-------------10----------10---10---------------|
|---12-------------12----------12------12-(x alot)---|
|---12-------------12----------12--------------------|
|----0--------------0-----------0--------------------|
[ Tab from: http://www.guitaretab.com/b/bring-me-the-horizon/116742.html ]
Both Gtrs: (1:04)
|---------------------------------------------|
|---------------------------------------------|
|---------------------------------------------|
|---8-8-8-8-8-8-8-8-10-10-10-10-10-10-10-10---|
|---8-8-8-8-8-8-8-8-10-10-10-10-10-10-10-10---|
|---8-8-8-8-8-8-8-8-10-10-10-10-10-10-10-10---|

Gtr 1: (1:10)
|------------------------------------------| x2
|------------------------------------------|
|-----------------------------------------|
|------------------------------------------|
|------------------------------------------|
|---0-12-0-12-0-12~---0-12-0-12-12-12-12---|

Chorus x2 (1:15)

End the 2nd Chorus with:
|-----------------------------|
|-----------------------------|
|----------------------------|
|---1-1-1-1-1---1/4-4-4-4-4---|
|---1-1-1-1-1---1/4-4-4-4-4---|
|---1-1-1-1-1--1/4-4-4-4-4---|

Gtr1: (1:36  2:22)
|---3---3---3---3---(x2)--6---6---6---6---5---5---2---2-----|
|-----3---3---3---3---------3---3---3---3---3---3---3---3---|
|----------------------------------------------------------|
|-----------------------------------------------------------|
|-----------------------------------------------------------|
|-----------------------------------------------------------|

Gtr 2: (1:59  2:22)
|-----------------------------------------------|
|-----------------------------------------------|
|----------------------------------------------|
|---5-5-5-5-5-5---------------------------------|
|---5-5-5-5-5-5----3-3-3-3-3-3----6-6-6-6-6-6---|
|---5-5-5-5-5-5----5-5-5-5-5-5----8-8-8-8-8-8---|

Both Gtrs: (2:22)
|---------------------------------------------|
|---------------------------------------------|
|---------------------------------------------|
|---8-8-8-8-8-8-8-8-10-10-10-10-10-10-10-10---|
|---8-8-8-8-8-8-8-8-10-10-10-10-10-10-10-10---|
|---8-8-8-8-8-8-8-8-10-10-10-10-10-10-10-10---|

Chorus (2:27  2:53)

End the last Chorus with:
|-----------------------------|
|-----------------------------|
|----------------------------|
|---1-1-1-1-1---1/4-4-4-4-4---|
|---1-1-1-1-1---1/4-4-4-4-4---|
|---1-1-1-1-1--1/4-4-4-4-4---|

Gtr 1: (2:53  3:28)
|---3---3---3---3---(x2)--6---6---6---6---5---5---2---2-----|
|-----3---3---3---3---------3---3---3---3---3---3---3---3---|
|----------------------------------------------------------|
|-----------------------------------------------------------|
|-----------------------------------------------------------|
|-----------------------------------------------------------|

Gtr 2: (2:53  3:28)
|-----------------------------------------------|
|-----------------------------------------------|
|----------------------------------------------|
|---5-5-5-5-5-5---------------------------------|
|---5-5-5-5-5-5----3-3-3-3-3-3----6-6-6-6-6-6---|
|---5-5-5-5-5-5----5-5-5-5-5-5----8-8-8-8-8-8---|

Gtr 2: finish on
|-------------------------|
|-------------------------|
|------------------------|
|-----5~~~~~--------------|
|-----5~~~~~-let ring-----|
|-----5~~~~~--------------|
Related for It Was Written In Blood tab